Song name
# A B C D E F G H I J K L M N O P Q R S T U V W X Y Z

Green Day - Oh Love tab

I didn't really like any one else's tabs. None were exactly right. This tab is 
100% accurate to the notes he is playing, but I learned it by ear so I might not 
play in the exact position on the fret board that he does.

Intro:
e|----------------------------------------------------------|
B|----------------------------------------------------------|
G|-----------x--x--x6--------x--x--x--6-6-66-66-------------|
D|-----6-6---x—-x--x6--6-6---x--x--x--6-6-66-66-6-6---x-—x--| x1
A|-----6-6—--x—-x--x4--6-6---x--x--x--4-4-44-44-6-6---x--x--|
E|-----4-4—------------4-4----------------------4-4---x-—x--|

Verse:
e|----------------------------------------------------------|
B|----------------------------------------------------------|
G|-----------x--x--x6--------x--x--x--6-6-66-66-------------|
D|-----6-6---x—-x--x6--6-6---x--x--x--6-6-66-66-6-6---x-—x--| x3
A|-----6-6—--x—-x--x4--6-6---x--x--x--4-4-44-44-6-6---x--x--|
E|-----4-4—------------4-4----------------------4-4---x-—x--|

Pre-chorus:
e|--------------------------------------------------------------|
B|--------------------------------------------------------------|
G|-----------x--x--x6--------x--x--x----------8888888888888888--|
D|--xx-6-6---x—-x--x6--6-6---x--x--x--6-6-6-6-8888888888888888--|
A|--xx-6-6—--x—-x--x4--6-6---x--x--x--4-3-4-6-6666666666666666--|
E|--xx-4-4—------------4-4------------------4-------------------|

Chorus:
e|-------------------------------------------------------------------|
B|-------------------------------------------------------------------|
G|----------8-8-8-8---------6-6-6-6---------8-8-8-8---------8-8-8-8--|
D|--6-6-6-6-8-8-8-8-6-6-6-6-6-6-6-6-6-6-6-6-8-8-8-8-6-6-6-6-8-8-8-8--|
A|--6-6-6-6-6-6-6-6-6-6-6-6-4-4-4-4-6-6-6-6-6-6-6-6-6-6-6-6-6-6-6-6—-|
E|--4-4-4-4---------4-4-4-4---------4-4-4-4---------4-4-4-4----------|

e|--------------------------------------------------------|
B|--------------------------------------------------------|
G|----------8-8-8-8---------6-6-6-6---------8-8-8-8-------|
D|--6-6-6-6-8-8-8-8-6-6-6-6-6-6-6-6-6-6-6-6-8-8-8-8--6-6--|
A|--6-6-6-6-6-6-6-6-6-6-6-6-4-4-4-4-6-6-6-6-6-6-6-6--6-6—-|
E|--4-4-4-4---------4-4-4-4---------4-4-4-4----------4-4--|

Interlude:
e|----------------------------|
B|----------------------------|
G|--6--------6-6-66666--------|
D|--6--6-6---6-6-66666-6-6----| x1
A|--4--6-6---4-4-44444-6-6----|
E|-----4-4—------------4-4----|

Verse:
e|-----------------------------------------------------------------------|
B|-----------------------------------------------------------------------|
G|--x6-------x--xx—-x—-x--x6--------x--xx--x—-xx--6-6-6666---------------|
D|--x6-6-6---x—-xx—-x—-x--x6--6-6---x--xx--x—-xx--6-6-6666-6-6---x-—xx—-x| x3
A|--x4-6-6—--x—-xx—-x—-x--x4--6-6---x--xx--x—-xx--4-4-4444-6-6---x--xx--x|
E|-----4-4—-------------------4-4--------------------------4-4---x-—xx--x|

Pre-chorus:
e|--------------------------------------------------------------|
B|--------------------------------------------------------------|
G|-----------x--x--x6--------x--x--x----------8888888888888888--|
D|--xx-6-6---x—-x--x6--6-6---x--x--x--6-6-6-6-8888888888888888--|
A|--xx-6-6—--x—-x--x4--6-6---x--x--x--4-3-4-6-6666666666666666--|
E|--xx-4-4—------------4-4------------------4-------------------|

Chorus:
e|-------------------------------------------------------------------|
B|-------------------------------------------------------------------|
G|----------8-8-8-8---------6-6-6-6---------8-8-8-8---------8-8-8-8--|
D|--6-6-6-6-8-8-8-8-6-6-6-6-6-6-6-6-6-6-6-6-8-8-8-8-6-6-6-6-8-8-8-8--|
A|--6-6-6-6-6-6-6-6-6-6-6-6-4-4-4-4-6-6-6-6-6-6-6-6-6-6-6-6-6-6-6-6—-|
E|--4-4-4-4---------4-4-4-4---------4-4-4-4---------4-4-4-4----------|

e|--------------------------------------------------------------------|
B|--------------------------------------------------------------------|
G|----------8-8-8-8---------6-6-6-6---------8-8-8-8-------------------|
D|--6-6-6-6-8-8-8-8-6-6-6-6-6-6-6-6-6-6-6-6-8-8-8-8--6-6-6-6-6-6-6-4--|
A|--6-6-6-6-6-6-6-6-6-6-6-6-4-4-4-4-6-6-6-6-6-6-6-6--6-6—6-6-6-6-6-4--|
E|--4-4-4-4---------4-4-4-4---------4-4-4-4----------4-4-4-4-4-4-4-2--|

Bridge:
e|----------------------------------------------------------------|
B|----------------------------------------------------------------|
G|--6-6---6-6--------------------6-6-6-6-6-6-6-6------------------|
D|--6-6---6-6---6-6---6-6—-x-4---6-6-6-6-6-6-6-6-6-6-6-6-6-6-6-4--|
A|--4-4---4-4---6-6---6-6—-x-4---4-4-4-4-4-4-4-4-6-6-6-6-6-6-6-4—-|
E|--------------4-4---4-4—-x-2-------------------4-4-4-4-4-4-4-2--|

e|---------------------------------------------------------------|
B|---------------------------------------------------------------|
G|--6-6---6-6--------8-10-10--10-----------88888888--------------|
D|--6-6---6-6---6-6--8-10-10--10---6-6-6-6-88888888--------------|
A|--4-4---4-4---6-6—-6-8—-8—--8----4-3-4-6-66666666--------------|
E|--------------4-4----------------------4-----------------------|

e|-----------------------------------------------4----------------------------|
B|----------------------------------------------4-4-6b^7-6-4------------------|
G|-----1~~1-0-1-3~~3-1-3-5~~5-3-5-6~~6-5-6-6b^8-------------6--6-4-4-6--6-4-4-|
D|----------------------------------------------------------------6--------6--|
A|----------------------------------------------------------------------------|
E|\\12\\----------------------------------------------------------------------|

e|-------------------------------------------------------------------------------|
B|-4-7b^8~^~^~^------------------------------------------------------------------|
G|6^-------------13~~13--12-13-15~~15-13-15-17~~17-15-17-18~~18-15-17-18-17-18---|
D|-----------------------------------------------------------------------------18|
A|-------------------------------------------------------------------------------|
E|-----------\\12\\--------------------------------------------------------------|

e|-------------------18-20-21-18-21b^23--------|
B|16~~16-18-20---20-21-------------------------|
G|---------------------------------------------|
D|---------------------------------------------|
A|---------------------------------------------|
E|---------------------------------------------|

Rhythm During Solo 
e|------------------------------------------------------------|
B|------------------------------------------------------------|
G|-------8-8-88--------6-6-66--------8-8-88----------88888888-|
D|6-6-66-8-8-88-6-6-66-6-6-66-6-6-66-8-8-88-6-6-66-6-88888888-|
A|6-6-66-6-6-66-6-6-66-4-4-44-6-6-66-6-6-66-6-6-66-6-66666666-|
E|4-4-44--------4-4-44--------4-4-44--------4-4-44-4----------|

e|----------------------------------------------------------|
B|----------------------------------------------------------|
G|-------8-8-88--------6-6-66--6-----6-----8888888888888888-|
D|6-6-66-8-8-88-6-6-66-6-6-66--6--6--6--6--8888888888888888-|
A|6-6-66-6-6-66-6-6-66-4-4-44--4--3--4--6--6666666666666666-|
E|4-4-44--------4-4-44------------------4-------------------|

Chorus: 4X
e|-------------------------------------------------------------------|
B|-------------------------------------------------------------------|
G|----------8-8-8-8---------6-6-6-6---------8-8-8-8---------8-8-8-8--|
D|--6-6-6-6-8-8-8-8-6-6-6-6-6-6-6-6-6-6-6-6-8-8-8-8-6-6-6-6-8-8-8-8--|
A|--6-6-6-6-6-6-6-6-6-6-6-6-4-4-4-4-6-6-6-6-6-6-6-6-6-6-6-6-6-6-6-6—-|
E|--4-4-4-4---------4-4-4-4---------4-4-4-4---------4-4-4-4----------|

Outro:
e|--------------------------------------------------------------------|
B|--------------------------------------------------------------------|
G|----------8-8-8-8----------8-8-8-8----------8-8-8-8-----X-6---------|
D|--6-6-6-6-8-8-8-8-6-6-6-6--8-8-8-8--6-6-6-6-8-8-8-8-6-6-X-6--6------|
A|--6-6-6-6-6-6-6-6-6-6-6-6--6-6-6-6--6-6-6-6-6-6-6-6—6-6-X-4--6------|
E|--4-4-4-4---------4-4-4-4-----------4-4-4-4---------4-4------4------|
Tap to rate this tab
# A B C D E F G H I J K L M N O P Q R S T U V W X Y Z