Song name
# A B C D E F G H I J K L M N O P Q R S T U V W X Y Z

Green Day - Let Yourself Go tab

Hey everyone, this is the tab as interpreted by me for the
live version of "let yourself go" from Red 7. This tab is
mainly those who have watched my youtube cover and want to
know how I played it. At the time this was written Uno had
not even come out yet so there may be a few slip ups here and
there but this is probably 90% correct :) My  cover is here: 
http://www.youtube.com/watch?v=Iq6BHkqfMzc&feature=plcp

Intro/Verses:

e|-------------------------------------|
B|-------------------------------------|
G|---7---------------------------------| 
D|-5-7-7--7-7-7-7-7-7-7-7-7-7-7-7-7-7--| X5 (Last time end on A power chord)
A|-3-5-7--x-x-x-x-x-x-x-x-x-x-x-x-x-x--|
E|-3---5--5-5-5-5-5-5-5-5-5-5-5-5-5-5--|


Chorus:

e|---------------------------------------------|
B|---------------------------------------------|
G|-7--7--7-7-7-7-------------------------------| 
D|-7--7--7-7-7-7-5--5--5-5-5-5--7--7--7-7-7-7--| X4
A|-5--5--5-5-5-5-5--5--5-5-5-5--7--7--7-7-7-7--|
E|---------------3--3--3-3-3-3--5--5--5-5-5-5--|

Post Chorus(Gotta let me go, gotta let it go)

e|-------------------------------------|
B|-------------------------------------|
G|---7---------------------------------| 
D|-5-7-7--x-x-x-x-x-x-x-x-x-x-x-x-x-x--| X2
A|-3-5-7--x-x-x-x-x-x-x-x-x-x-x-x-x-x--|
E|-3---5--x-x-x-x-x-x-x-x-x-x-x-x-x-x--|

Solo(Part 1):

e|----------------------------|
B|----------------------------|
G|-7--12--9-7-6----7--12--14--| 
D|-x--x---x-x-x----x--x---x---|Figure out strumming yourself :P 
A|-5--10--7-5-4----5--10--12--|
E|----------------------------|

Solo (Part 2):

e|-----------------------10-10-----10-10-----10-10-----10-10-----10-10------|
B|-----------------------10-10-----10-10-----10-10-----10-10-----10-10------|
G|-10-10h12p10----10h12b-------12^-------12^-------12^-------12^-------12^--| 
D|-------------12-----------------------------------------------------------|
A|--------------------------------------------------------------------------|
E|--------------------------------------------------------------------------|

e|------------------------------------------------------10-----10-----------|
B|-------------------13b-13b-13b-13b-13br10-------------10-----10-----------|
G|-12br-10h12p10-----------------------------12br----------12^----12^-------| 
D|---------------12-------------------------------14p12---------------------|
A|--------------------------------------------------------------------------|
E|--------------------------------------------------------------------------|

e|-10-10-----10-10-----10----------------------------------|
B|-10-10-----10-10-----10--10--10--10---14-14-14-----------|
G|-------12^-------12^-----12b-12b-12b--16-16-16br-16p14v--| 
D|---------------------------------------------------------|
A|---------------------------------------------------------|
E|---------------------------------------------------------|

Post Solo(interlude bit/"******* with my head now")

e|---------------------------------|
B|---------------------------------|
G|----*-*-*-*-*-*-*-*-*-*-*-*-*-*--| 
D|-7--7-7-7-7-7-7-7-7-7-7-7-7-7-7--| 
A|-7--7-7-7-7-7-7-7-7-7-7-7-7-7-7--|
E|-5--5-5-5-5-5-5-5-5-5-5-5-5-5-5--|
Tap to rate this tab
# A B C D E F G H I J K L M N O P Q R S T U V W X Y Z