Song name
# A B C D E F G H I J K L M N O P Q R S T U V W X Y Z

Green Day - Let Yourself Go tab

Let Yourself Go! - Green Day
ĦUNO!
Tab by Jordan S.

*Intro/Verse*

Guitar 1 (Billie Joe)
e|-----------------------------------------------------------|
B|-----------------------------------------------------------|
G|----7------------------------------------------------------|\
D|--5-7-7----------------------------------------------------| \
A|--5-5-7----------------------------------------------------|  \
E|--3---5----------------------------------------------------|   \
                                                                  x7
Guitar 2 (Jason)                                                  
e|-----------------------------------------------------------|   /
B|-----------------------------------------------------------|  /
G|----7------------------------------------------------------| /
D|--5-7-7--7-7-7---------------------------------------------|/
A|--5-5-7--x-x-x---------------------------------------------|
E|--3---5--5-5-5---------------------------------------------|

(on the 7th time just play Billie's part)

*Chorus*

Both Guitars
e|-----------------------------------------------------------|
B|-----------------------------------------------------------|
G|--7--------------------------------------------------------| X 4
D|--7---5---7------------------------------------------------|
A|--5---5---7------------------------------------------------|
E|------3---5------------------------------------------------|

*Post Chorus?*
Both Guitars
e|------------x-----------------------------------------------|
B|------------x-----------------------------------------------|
G|------------x--X-(How ever many times)----------------------|
D|--5--6--7---x-----------------------------------------------|
A|--5--6--7---x-----------------------------------------------|
E|--3--4--5---x-----------------------------------------------|

Verse
Chorus
Post-Chorus
Solo (Chorus played on Guitar 2)


Bridge
Guitar 1 plays nothing

Guitar 2
e|-----------------------------------------------------------|
B|-----------------------------------------------------------|
G|-------------7---------------------------------------------|
D|--7-7-7-7----7---------------------------------------------|
A|--7-7-7-7----5---------------------------------------------|
E|--5-5-5-5--------------------------------------------------|
    * * * *

Chorus

Outro
Both Guitars
e|-----------------------------------------------------------|
B|-----------------------------------------------------------|
G|-----------------------------7-----------------------------|
D|-5--6--7----(Drum Fill)---5--7--7--------------------------|
A|-5--6--7------------------5--5--7--------------------------|
E|-3--4--5------------------3-----5--------------------------|
Tap to rate this tab
# A B C D E F G H I J K L M N O P Q R S T U V W X Y Z