Song name
# A B C D E F G H I J K L M N O P Q R S T U V W X Y Z

Green Day - Macys Day Parade tab

READ DESCRIPTION FIRST!

The X's I will put on here are guitar slaps, not fret hand muting. You can use fret hand muting,
but the rhythm wont sound quite right. Instead lowercase x's will be used for fret 
muting. This is not the only way to play this song, however I guarantee that

I have seen other tabs for this song but they did not sound right at all, so I made my 
own tab for the song.

X = Guitar slap
x = Fret hand mute
~ = tremelo


Intro:

Eb--0-0-X--0-0-0-X--0-0-0-X--0-0-0-X--0-0-0--|
Bb--1-1-X--1-1-1-X--1-1-1-X--1-1-1-X--1-1-1--|
Gb--0-0-X--0-0-0-X--0-0-0-X--0-0-0-X--0-0-0--|
Db--2-2-X--2-2-2-X--2-2-2-X--2-2-2-X--2-2-2--|
Ab--3-3-X--3-3-3-X--3-3-3-X--3-3-3-X--3-3-3--|
Eb------X--------X--------X--------X---------|



Verse:

Eb--0-0-X--0-0-0-X--0-0-0-X--0-0-0-X-----0-0--X--0-0-0--X--0-0-0--X-0-0-0--|
Bb--1-1-X--1-1-1-X--1-1-1-X--1-1-1-X-----1-1--X--1-1-1--X--1-1-1--X-1-1-1--|
Gb--0-0-X--0-0-0-X--0-0-0-X--0-0-0-X--0--2-2--X--2-2-2--X--2-2-2--X-2-2-2--|
Db--2-2-X--2-2-2-X--2-2-2-X--2-2-2-X--0--2-2--X--2-2-2--X--2-2-2--X-2-2-2--|
Ab--3-3-X--3-3-3-X--3-3-3-X--3-3-3-X--0--0-0--X--0-0-0--X--0-0-0--X-0-0-0--|
Eb------X--------X--------X--------X----------X---------X---------X--------|


Eb----1-1-X-1-1-1-X----3-3-X-3-3-3-X----0-0-X--0-0-0-X-0-0-0-X-0-0-0-X-|
Bb----1-1-X-1-1-1-X----3-3-X-3-3-3-X----1-1-X--1-1-1-X-1-1-1-X-1-1-1-X-|
Gb----2-2-X-2-2-2-X----0-0-X-0-0-0-X----0-0-X--0-0-0-X-0-0-0-X-0-0-0-X-|
Db-0--3-3-X-3-3-3-X----0-0-X-0-0-0-X-0--2-2-X--2-2-2-X-2-2-2-X-2-2-2-X-|
Ab-0--3-3-X-3-3-3-X-0--x-x-X-x-x-x-X-0--3-3-X--3-3-3-X-3-3-3-X-3-3-3-X-|
Eb--------X-------X-0--3-3-X-3-3-3-X--------X--------X-------X-------X-|


Chorus:

Eb--1-1-X--1-1-1-X--1-1-1-X--1-1-1-X-----3-3-X--3-3-3-X--3-3-3-X--3-3-3-|
Bb--1-1-X--1-1-1-X--1-1-1-X--1-1-1-X-----3-3-X--3-3-3-X--3-3-3-X--3-3-3-|
Gb--2-2-X--2-2-2-X--2-2-2-X--2-2-2-X-----0-0-X--0-0-0-X--0-0-0-X--0-0-0-|
Db--3-3-X--3-3-3-X--3-3-3-X--3-3-3-X-----0-0-X--0-0-0-X--0-0-0-X--0-0-0-|
Ab--3-3-X--3-3-3-X--3-3-3-X--3-3-3-X--0--x-x-X--x-x-x-X--x-x-x-X--x-x-x-|
Eb------X--------X--------X--------X--0--3-3-X--3-3-3-X--3-3-3-X--3-3-3-|


Eb--1-1-X--1-1-1-X--1-1-1-X--1-1-1-X-----3-3-X--3-3-3-X--3-3-3-X--3-3-3-|
Bb--1-1-X--1-1-1-X--1-1-1-X--1-1-1-X-----3-3-X--3-3-3-X--3-3-3-X--3-3-3-|
Gb--2-2-X--2-2-2-X--2-2-2-X--2-2-2-X-----0-0-X--0-0-0-X--0-0-0-X--0-0-0-|
Db--3-3-X--3-3-3-X--3-3-3-X--3-3-3-X-----0-0-X--0-0-0-X--0-0-0-X--0-0-0-|
Ab--3-3-X--3-3-3-X--3-3-3-X--3-3-3-X--0--x-x-X--x-x-x-X--x-x-x-X--x-x-x-|
Eb------X--------X--------X--------X--0--3-3-X--3-3-3-X--3-3-3-X--3-3-3-|

Then back to verse




2nd Chorus:


Eb--1-1-X--1-1-1-X--1-1-1-X--1-1-1-X-----3-3-X--3-3-3-X--3-3-3-X--3-3-3-|
Bb--1-1-X--1-1-1-X--1-1-1-X--1-1-1-X-----3-3-X--3-3-3-X--3-3-3-X--3-3-3-|
Gb--2-2-X--2-2-2-X--2-2-2-X--2-2-2-X-----0-0-X--0-0-0-X--0-0-0-X--0-0-0-|
Db--3-3-X--3-3-3-X--3-3-3-X--3-3-3-X-----0-0-X--0-0-0-X--0-0-0-X--0-0-0-|
Ab--3-3-X--3-3-3-X--3-3-3-X--3-3-3-X--0--x-x-X--x-x-x-X--x-x-x-X--x-x-x-|
Eb------X--------X--------X--------X--0--3-3-X--3-3-3-X--3-3-3-X--3-3-3-|


Eb-0-0-0-0---3-3-3-3--0-0-0-0---3-3-3-3---1-1-1-1-1-1-1-1---3-3-3-3-3-3-3-3|
Bb-1-1-1-1---3-3-3-3--1-1-1-1---3-3-3-3---1-1-1-1-1-1-1-1---3-3-3-3-3-3-3-3|
Gb-0-0-0-0---0-0-0-0--2-2-2-2-0-0-0-0-0---2-2-2-2-2-2-2-2-0-0-0-0-0-0-0-0-0|
Db-2-2-2-2-0-0-0-0-0--2-2-2-2-0-0-0-0-0---3-3-3-3-3-3-3-3-0-0-0-0-0-0-0-0-0|
Ab-3-3-3-3-0-x-x-x-x-0--------0-x-x-x-x-0-3-3-3-3-3-3-3-3-0-x-x-x-x-x-x-x-x|
Eb-----------3-3-3-3-0----------3-3-3-3-0-------------------3-3-3-3-3-3-3-3|


Eb-----0-0-X--0-0-0-X--0-0-0-X--0-0-0-X--0-0-0--|
Bb-----1-1-X--1-1-1-X--1-1-1-X--1-1-1-X--1-1-1--|
Gb-----0-0-X--0-0-0-X--0-0-0-X--0-0-0-X--0-0-0--|
Db--0--2-2-X--2-2-2-X--2-2-2-X--2-2-2-X--2-2-2--|
Ab--0--3-3-X--3-3-3-X--3-3-3-X--3-3-3-X--3-3-3--|
Eb---------X--------X--------X--------X---------|

Bridge:                         (play 2 times)

Eb----0-0-X-0-0-0-X-0-0-0-X-0-0-0-X----0-0-X-0-0-0-X-0-0-0-X-0-0-0-|
Bb----1-1-X-1-1-1-X-1-1-1-X-1-1-1-X----1-1-X-1-1-1-X-1-1-1-X-1-1-1-|
Gb----0-0-X-0-0-0-X-0-0-0-X-0-0-0-X-0--2-2-X-2-2-2-X-2-2-2-X-2-2-2-|
Db--0-2-2-X-2-2-2-X-2-2-2-X-2-2-2-X-0--2-2-X-2-2-2-X-2-2-2-X-2-2-2-|
Ab--0-3-3-X-3-3-3-X-3-3-3-X-3-3-3-X-0--0-0-X-0-0-0-X-0-0-0-X-0-0-0-|
Eb--------X-------X-------X-------X--------X-------X-------X-------|

Eb----1-1-X-1-1-1--X----3-3-X-3-3-3-X----0-0--X-0-0-0--X-0-0-0--X-0-0-0--X-|
Bb----1-1-X-1-1-1--X----3-3-X-3-3-3-X----1-1--X-1-1-1--X-1-1-1--X-1-1-1--X-|
Gb----2-2-X-2-2-2--X----0-0-X-0-0-0-X----0-0--X-0-0-0--X-0-0-0--X-0-0-0--X-|
Db-0--3-3-X-3-3-3--X----0-0-X-0-0-0-X-0--2-2--X-2-2-2--X-2-2-2--X-2-2-2--X-|
Ab-0--3-3-X-3-3-3--X-0--x-x-X-x-x-x-X-0--3-3--X-3-3-3--X-3-3-3--X-3-3-3--X-|
Eb--------X--------X-0--3-3-X-3-3-3-X---------X--------X--------X--------X-|




Ending Chorus:

Eb-1-1--X-1-1-1--X-1-1-1--X-1-1-1--X----3-3--X-3-3-3--X-3-3-3--X-3-3-3-| 2x
Bb-1-1--X-1-1-1--X-1-1-1--X-1-1-1--X----3-3--X-3-3-3--X-3-3-3--X-3-3-3-|
Gb-2-2--X-2-2-2--X-2-2-2--X-2-2-2--X----0-0--X-0-0-0--X-0-0-0--X-0-0-0-|
Db-3-3--X-3-3-3--X-3-3-3--X-3-3-3--X----0-0--X-0-0-0--X-0-0-0--X-0-0-0-|
Ab-3-3--X-3-3-3--X-3-3-3--X-3-3-3--X-0--x-x--X-x-x-x--X-x-x-x--X-x-x-x-|
Eb------X--------X--------X--------X-0--3-3--X-3-3-3--X-3-3-3--X-3-3-3-|


  Play 3x

Eb-0-0-0-0---3-3-3-3---0-0-0-0---3-3-3-3---1-1-1-1-1-1-1-1---3-3-3-3-3-3-3-3|
Bb-1-1-1-1---3-3-3-3---1-1-1-1---3-3-3-3---1-1-1-1-1-1-1-1---3-3-3-3-3-3-3-3|
Gb-0-0-0-0---0-0-0-0---2-2-2-2-0-0-0-0-0---2-2-2-2-2-2-2-2-0-0-0-0-0-0-0-0-0|
Db-2-2-2-2-0-0-0-0-0---2-2-2-2-0-0-0-0-0---3-3-3-3-3-3-3-3-0-0-0-0-0-0-0-0-0|
Ab-3-3-3-3-0-x-x-x-x-0---------0-x-x-x-x-0-3-3-3-3-3-3-3-3-0-x-x-x-x-x-x-x-x|
Eb-----------3-3-3-3-0-----------3-3-3-3-0-------------------3-3-3-3-3-3-3-3|

Ending:

Eb----0-0-X-0-0-0-X-0-0-0-X-0-0-0-X-0-0-0-X-0-0-0-X-0-0-0-X-0-0-0-0-0-0~-|
Bb----1-1-X-1-1-1-X-1-1-1-X-1-1-1-X-1-1-1-X-1-1-1-X-1-1-1-X-1-1-1-1-1-1~-|
Gb----0-0-X-0-0-0-X-0-0-0-X-0-0-0-X-0-0-0-X-0-0-0-X-0-0-0-X-0-0-0-0-0-0~-|
Db-0--2-2-X-2-2-2-X-2-2-2-X-2-2-2-X-2-2-2-X-2-2-2-X-2-2-2-X-2-2-2-2-2-2~-|
Ab-0--3-3-X-3-3-3-X-3-3-3-X-3-3-3-X-3-3-3-X-3-3-3-X-3-3-3-X-3-3-3-3-3-3~-|
Eb--------X-------X-------X-------X-------X-------X-------X--------------|
Tap to rate this tab
# A B C D E F G H I J K L M N O P Q R S T U V W X Y Z