Song name
# A B C D E F G H I J K L M N O P Q R S T U V W X Y Z

Green Day - Blood Sex And Booze tab

-------------------------------------------------------------------------------
                             Blood, Sex And Booze - Green Day
-------------------------------------------------------------------------------
Tabbed by: Jordanlolss

Tuning: Standard

I'm 99% positive this is all correct.. Spent a few hours watching live videos very 
closely, and listening to the studio version..
Was well worth it.
Hope you enjoy, if you see anything wrong then please leave a comment..
Thanks!


    (palm mute these)
e|---------------------------------------------------------------------------|
B|---------------------------------------------------------------------------|
G|-9-9-9-9-9-9-9-9-----------------------------------------------------------|
D|-9-9-9-9-9-9-9-9-(x4 on 1st time, x2 on 2nd)---10-10-10-10-10-10-10-10-----|(x2)
A|-7-7-7-7-7-7-7-7-------------------------------10-10-10-10-10-10-10-10-(x2)|
E|-----------------------------------------------8--8--8--8--8--8--8--8------|

   (stop palm muting)
e|---------------------------------------------------------------------------|
B|---------------------------------------------------------------------------|
G|-----------6-6-6-6-6-6-6-6-------9-9-9-9-9-9-9-9-------6-6-6-6-6-6-6-6-----|
D|-----------6-6-6-6-6-6-6-6-(x2)--9-9-9-9-9-9-9-9-(x2)--6-6-6-6-6-6-6-6-(x2)|
A|--2-2-2----4-4-4-4-4-4-4-4-------7-7-7-7-7-7-7-7-------4-4-4-4-4-4-4-4-----|
E|--0-0-0--------------------------------------------------------------------|
            
                           (start palm muting again)
e|---------------------------------------------------------------------------|
B|---------------------------------------------------------------------------|
G|--------------------------9-9-9-9-9-9-9-9--7-7-7-7-7-7-7-7--6-6-6-6-6-6-6-6|
D|-7-7-7-7-7-7-7-7-----9----9-9-9-9-9-9-9-9--7-7-7-7-7-7-7-7--6-6-6-6-6-6-6-6|
A|-7-7-7-7-7-7-7-7-----9----7-7-7-7-7-7-7-7--5-5-5-5-5-5-5-5--4-4-4-4-4-4-4-4|
E|-5-5-5-5-5-5-5-5-----7-----------------------------------------------------|

  (lift palm mute on the final chord, then start palm muting again)
e|---------------------------------------------------------------------------|
B|---------------------------------------------------------------------------|
G|---------------------------------------------------------------------------|
D|-7-7-7-7-9-----------------------------------------------------------------|
A|-7-7-7-7-9-----------------------------------------------------------------|
E|-5-5-5-5-7-----------------------------------------------------------------|


e|---------------------------------------------------------------------------|
B|---------------------------------------------------------------------------|
G|-9-9-9-9-9-9-9-9-----------------------------------------------------------|
D|-9-9-9-9-9-9-9-9-(x4 on 1st time, x2 on 2nd)---10-10-10-10-10-10-10-10-----|(x2)
A|-7-7-7-7-7-7-7-7-------------------------------10-10-10-10-10-10-10-10-(x2)|
E|-----------------------------------------------8--8--8--8--8--8--8--8------|

   (Stop palm muting)
e|---------------------------------------------------------------------------|
B|---------------------------------------------------------------------------|
G|-----------6-6-6-6-6-6-6-6-------9-9-9-9-9-9-9-9-------6-6-6-6-6-6-6-6-----|
D|-----------6-6-6-6-6-6-6-6-(x2)--9-9-9-9-9-9-9-9-(x2)--6-6-6-6-6-6-6-6-(x2)|
A|--2-2-2----4-4-4-4-4-4-4-4-------7-7-7-7-7-7-7-7-------4-4-4-4-4-4-4-4-----|
E|--0-0-0--------------------------------------------------------------------|

                           (start palm muting again)
e|---------------------------------------------------------------------------|
B|---------------------------------------------------------------------------|
G|--------------------------9-9-9-9-9-9-9-9--7-7-7-7-7-7-7-7--6-6-6-6-6-6-6-6|
D|-7-7-7-7-7-7-7-7-----9----9-9-9-9-9-9-9-9--7-7-7-7-7-7-7-7--6-6-6-6-6-6-6-6|
A|-7-7-7-7-7-7-7-7-----9----7-7-7-7-7-7-7-7--5-5-5-5-5-5-5-5--4-4-4-4-4-4-4-4|
E|-5-5-5-5-5-5-5-5-----7-----------------------------------------------------|


  (lift palm mute on the final chord, then start palm muting again)
e|---------------------------------------------------------------------------|
B|---------------------------------------------------------------------------|
G|----------------------9-9-9-9-9-9-9-9--------------------------------------|
D|-7-7-7-7-9------------9-9-9-9-9-9-9-9-(x4)---------------------------------|
A|-7-7-7-7-9------------7-7-7-7-7-7-7-7--------------------------------------|
E|-5-5-5-5-7-------(towards the end of the 2nd time stop palm muting)--------|
                        

e|---------------------------------------------------------------------------|
B|---------------------------------------------------------------------------|
G|-5-5--5-5--5-5--5-5---------9-9-9-9-9-9-9-9-------5-5--5-5--5-5--5-5-------|
D|-5-5--5-5--5-5--5-5-(x2)----9-9-9-9-9-9-9-9-(x2)--5-5--5-5--5-5--5-5-(x2)--|
A|-3-3--3-3--3-3--3-3---------7-7-7-7-7-7-7-7-------3-3--3-3--3-3--3-3-------|
E|----33---33-- 33---33--------------------------------33---33---33---33-----|


e|---------------------------------------------------------------------------|
B|---------------------------------------------------------------------------|
G|---6-6-6-6-6-6-6-6-------9-9-9-9-9-9-9-9-------6-6-6-6-6-6-6-6-------------|
D|---6-6-6-6-6-6-6-6-(x2)--9-9-9-9-9-9-9-9-(x2)--6-6-6-6-6-6-6-6-(x2)--------|
A|---4-4-4-4-4-4-4-4-------7-7-7-7-7-7-7-7-------4-4-4-4-4-4-4-4-------------|
E|---------------------------------------------------------------------------|

                           
e|---------------------------------------------------------------------------|
B|---------------------------------------------------------------------------|
G|---------------------------------------9-9-9-9-9-9-9-9---------------------|
D|-7-7-7-7-7-7-7-7-----9-9-9-9-9-9-9-9---9-9-9-9-9-9-9-9-(x2)----------------|
A|-7-7-7-7-7-7-7-7-----9-9-9-9-9-9-9-9---7-7-7-7-7-7-7-7---------------------|
E|-5-5-5-5-5-5-5-5-----7-7-7-7-7-7-7-7---------------------------------------|


e|---------------------------------------------------------------------------|
B|---------------------------------------------------------------------------|
G|-5-5--5-5--5-5--5-5---------9-9-9-9-9-9-9-9-------5-5--5-5--5-5--5-5-------|
D|-5-5--5-5--5-5--5-5-(x2)----9-9-9-9-9-9-9-9-(x2)--5-5--5-5--5-5--5-5-(x2)--|
A|-3-3--3-3--3-3--3-3---------7-7-7-7-7-7-7-7-------3-3--3-3--3-3--3-3-------|
E|----33---33-- 33---33--------------------------------33---33---33---33-----|


e|---------------------------------------------------------------------------|
B|---------------------------------------------------------------------------|
G|-9-9-9-9-9-9-9-9-7-7-7-7-7-7-7-7-6-6-6-6-6-6-6-6-5-5-5-5-4-----------------|
D|-9-9-9-9-9-9-9-9-7-7-7-7-7-7-7-7-6-6-6-6-6-6-6-6-5-5-5-5-4-----------------|
A|-7-7-7-7-7-7-7-7-5-5-5-5-5-5-5-5-4-4-4-4-4-4-4-4-3-3-3-3-2-----------------|
E|---------------------------------------------------------------------------|






************************************

| /   slide up
| \   slide down
| h   hammer-on
| p   pull-off
| ~   vibrato
| +   harmonic
| x   Mute note
| b   Bend
| pb  Pre-bend
| br  Bend release
| pbr Pre-bend release
| brb Bend release bend

************************************
Tap to rate this tab
 
# A B C D E F G H I J K L M N O P Q R S T U V W X Y Z