Song name
# A B C D E F G H I J K L M N O P Q R S T U V W X Y Z

Green Day - Troublemaker tab

-----------------------------------------------------------------------------
                             TROUBLEMAKER - GREEN DAY
-----------------------------------------------------------------------------
Chords:
B:799xxx
E:x799xx
A:577xxx
D:x577xx
Bb:688xx
Gb:244xx


Tuning:Standard
8x(verse)
e|---------------------------------------------------------------------------|
B|---------------------------------------------------------------------------|
G|-----9-9-9-------7---------------------------------------------------------|
D|-9-9-9-9-9-7-7-7-7-7-7-8---------------------------------------------------|
A|-9-9-7-7-7-7-7-7-5-7-7-8---------------------------------------------------|
E|-7-7-------5-5-5---5-5-6---------------------------------------------------|
4x(chorus)
e|----------------------------------------------------------------------------|
B|----------------------------------------------------------------------------|
G|----------------------------------------------------------------------------|
D|-7-7-8-4--------------------------------------------------------------------|
A|-7-7-8-4(let it ring)-------------------------------------------------------|
E|-5-5-6-2--------------------------------------------------------------------|

*****************************************************************************
Tap to rate this tab
 
# A B C D E F G H I J K L M N O P Q R S T U V W X Y Z