Song name
# A B C D E F G H I J K L M N O P Q R S T U V W X Y Z

Green Day - Troublemaker tab

Artist: Green Day
Album: UNO
Song: Troublemaker
Track: 8
Year: 2012
Tuning: standard (EADGBe)
 
its actually a pretty easy song      

Intro                             Repeat x2
e|--XX-X--X-XX-X--X-XX-X--X-XX-X--|
B|--XX-X--X-XX-X--X-XX-X--X-XX-X--|
G|--XX-X--X-XX-X--X-XX-X--X-XX-X--|
D|--XX-X--X-XX-X--X-XX-X--X-XX-X--|
A|--XX-X--X-XX-X--X-XX-X--X-XX-X--|
E|--XX-X--X-XX-X--X-XX-X--X-XX-X--|

Verse                         Repeat many times til chorus
e|---------------------------|
B|---------------------------|
G|----------88--------8-8----|
D|--6-88--6-88--6-88--8-8-6--|
A|--6-88--6-66--6-88--6-6-6--|
E|--4-66--4-----4-66------4--|

Chorus
e|--------------------------|
B|--------------------------|
G|--------------------------|
D|--6--888-6--888-6--888-6--|
A|--6--888-6--888-6--888-6--|
E|--4--666-4--666-4--666-4--|

Pre Verse
e|-------|
B|-------|
G|-------|
D|--666--|
A|--666--|
E|--444--|

Bridge    repeat x4
e|--------|
B|--------|
G|--------|
D|--6668--|
A|--6668--|
E|--4446--|

Order 
Intro
Verse
Chorus
Pre Verse
Verse
Chorus
Rhythm during solo (same as Verse then after half way same as intro)
Bridge
Verse
Tap to rate this tab
# A B C D E F G H I J K L M N O P Q R S T U V W X Y Z