Song name
# A B C D E F G H I J K L M N O P Q R S T U V W X Y Z

Green Day - Stay The Night tab

Stay the Night from Green Day's new album, UNO!
this is how Billie plays it in the video
Enjoy!

Tuning: Standard

Intro:

e|----------------------------------------------------------------------------|
B|----------------------------------------------------------------------------|
G|---11--11---12---14----14---12--12---11-11--9-11----------------------------|
D|----0---0----0----0-----0----0---0----0--0--0--0----------------------------|
A|----------------------------------------------------------------------------|
E|----------------------------------------------------------------------------|

e|----------------------------------------------------------------------------|
B|----------------------------------------------------------------------------|
G|---11--11---12---14----14---12----------------------------------------------|
D|----0---0----0----0-----0----0----------------------------------------------|
A|----------------------------------------------------------------------------|
E|----------------------------------------------------------------------------|
then

e|----------------------------------------------------------------------------|
B|----------------------------------------------------------------------------|
G|----------------------------11--11---12---14--14---12-----------------------|
D|--11-11--12--14----pause-----0---0----0----0---0----0-----------------------|
A|--0--0---0---0--------------------------------------------------------------|
E|----------------------------------------------------------------------------|

e|----------------------------------------------------------------------------|
B|----------------------------------------------------------------------------|
G|---0---0---0---0---------------11---11---12--14--12---11--------------------|
D|---12--12--11--9---pause--------0----0----0---0---0----0--------------------|
A|----------------------------------------------------------------------------|
E|----------------------------------------------------------------------------|


e|--------------------------------------------------------------------------|
B|--------------------------------------------------------------------------|
G|--7--7-7-7-7-7-7----------7-----------------------------------------------|
D|--7--7-7-7-7-7-7--7--7-7--7--7--5--5-5-5-5-5-5--7--7-7-7-7-7-7------------|
A|--5--5-5-5-5-5-5--7--7-7--5--7--5--5-5-5-5-5-5--7--7-7-7-7-7-7----(x2)----|
E|------------------5--5-5-----5--3--3-3-3-3-3-3--5--5-5-5-5-5-5------------|

Verse: Palm Mute
e|--------------------------------------------------------------------------|
B|--------------------------------------------------------------------------|
G|--7-----------------------------------------------------------------------|
D|--7-(x16)--5-5-5-5-5-5-5-5--7-7-7-7-7-7-7-7------(x4)---------------------|
A|--5--------5-5-5-5-5-5-5-5--7-7-7-7-7-7-7-7-------------------------------|
E|-----------3-3-3-3-3-3-3-3--5-5-5-5-5-5-5-5-------------------------------|

Pre-Chorus:
e|--------------------------------------------------------------------------|
B|--------------------------------------------------------------------------|
G|--4--4--4-4-4--------------------7--7--7-7-7------------------------------|
D|--4--4--4-4-4--5--5-5-5-5-5-5-5--7--7--7-7-7--7--7-7-7-7-7-7-7---(x2)-----|
A|--2--2--2-2-2--5--5-5-5-5-5-5-5--5--5--5-5-5--7--7-7-7-7-7-7-7------------|
E|---------------3--3-3-3-3-3-3-3---------------5--5-5-5-5-5-5-5------------|

Chorus:
e|--------------------------------------------------------------------------|
B|--------------------------------------------------------------------------|
G|--7--7-7-7-7-7-7----------7-----------------------------------------------|
D|--7--7-7-7-7-7-7--7--7-7--7--7--5--5-5-5-5-5-5--7--7-7-7-7-7-7------------|
A|--5--5-5-5-5-5-5--7--7-7--5--7--5--5-5-5-5-5-5--7--7-7-7-7-7-7----(x4)----|
E|------------------5--5-5-----5--3--3-3-3-3-3-3--5--5-5-5-5-5-5------------|
Tap to rate this tab
 
# A B C D E F G H I J K L M N O P Q R S T U V W X Y Z