Song name
# A B C D E F G H I J K L M N O P Q R S T U V W X Y Z

Green Day - Troublemaker tab

This is my solo tab of Troublemaker. There's actually no tabs of this one so I'm the first. 
You should therefore be indulgent please, thank you and have fun. (I edited the tab)

If you need some help, check out my video !
http://www.youtube.com/watch?v=h9t51cTAgAI

E|--------------------------------------------------------------------|
B|--------------------------------------------------------------------|
G|----8~----9~---11~------13--14~------16b-8~-------------------------|
D|--------------------------------------------------------------------|
A|--------------------------------------------------------------------|
E|--------------------------------------------------------------------|


E|-------------------------------14~--12-14-12-14~-------------------|
B|---10------10------12/14-------------------------------------------|
G|-------11------11--------------------------------------------------|
D|-------------------------------------------------------------------|
A|-------------------------------------------------------------------|
E|-------------------------------------------------------------------|


E|---14--12---------------------------------------------------------|
B|------------14--12----------12h14--14--12h14p12~------------------|
G|---------------------14b---------------------------14~------------|
D|------------------------------------------------------------------|
A|------------------------------------------------------------------|
E|------------------------------------------------------------------|

E|---------------------------------------------------------------------------|
B|---17p14-------17p14--------17p14---------17p14-------17p14-------17p14----|
G|----------17----------17------------17-----------17----------17------------|
D|---------------------------------------------------------------------------|
A|---------------------------------------------------------------------------|
E|---------------------------------------------------------------------------|


Tabbed by Stanislas Minkendorfer !
Tap to rate this tab
 
# A B C D E F G H I J K L M N O P Q R S T U V W X Y Z