Song name
# A B C D E F G H I J K L M N O P Q R S T U V W X Y Z

Green Day - Fell For You tab

Artist: Green Day
Album: ĦUNO!
Song: Fell For You
Instrument: Guitar
Submitter: theanswerga

//This is a tab version I play in the cover here ->
http://www.youtube.com/watch?v=t4c67qFD59Y so if you don't understand some part you can 
watch the video there or PM me and
I'll help you.
There are other ways on how to play this song I just prefer this one. Listen to the song
to get the idea of strumming and picking.

Standard Tuning

Intro 1: (Guitar 1)

e|--------------------------------------------------|
B|--------------------------------------------------|
G|-9--9---------------------------------------------|
D|-9--9---------------------------------------------|
A|-7--7---------------------------------------------|
E|--------------------------------------------------|


Intro 2: (Guitar 1)
//Repeat each position several times
2x

e|--------------------------------------------------|
B|--------------------------------------------------|
G|----7--9------------------------------------------|
D|-7--7--9------------------------------------------|
A|-7--5--7------------------------------------------|
E|-5------------------------------------------------|

Intro 2: (Guitar 2)
2x

e|--------------------------------------------------|
B|-555-55-555532-777-79-999975----------------------|
G|--------------------------------------------------|
D|--------------------------------------------------|
A|--------------------------------------------------|
E|--------------------------------------------------|

Verse: (Guitar 1)
//Repeat each position several times (extend the 799 on 8 repeat)
8x

e|--------------------------------------------------|
B|--------------------------------------------------|
G|-7--9---------------------------------------------|
D|-7--9---------------------------------------------|
A|-5--7---------------------------------------------|
E|--------------------------------------------------|

Pre Chorus: (Guitar 1)
//Repeat each position several times
2x

e|--------------------------------------------------|
B|--------------------------------------------------|
G|----7--9------------------------------------------|
D|-7--7--9------------------------------------------|
A|-7--5--7------------------------------------------|
E|-5------------------------------------------------|

Pre Chorus: (Guitar 2)
2x

e|--------------------------------------------------|
B|-555-55-555532-777-79-999975----------------------|
G|--------------------------------------------------|
D|--------------------------------------------------|
A|--------------------------------------------------|
E|--------------------------------------------------|

Chorus part 1: (Guitar 1)
//Repeat each position several times
2x

e|--------------------------------------------------|
B|--------------------------------------------------|
G|-------7------------------------------------------|
D|-4--7--7--7---------------------------------------|
A|-4--7--5--7---------------------------------------|
E|-2--5-----5---------------------------------------|

Chorus part 2: (Guitar 1)
//Repeat each position P.M. several times
2x

e|--------------------------------------------------|
B|--------------------------------------------------|
G|-7--9---------------------------------------------|
D|-7--9---------------------------------------------|
A|-5--7---------------------------------------------|
E|--------------------------------------------------|

Verse: (Guitar 1)
//Repeat each position several times (extend the 799 on 8 repeat)
8x

e|--------------------------------------------------|
B|--------------------------------------------------|
G|-7--9---------------------------------------------|
D|-7--9---------------------------------------------|
A|-5--7---------------------------------------------|
E|--------------------------------------------------|

Pre Chorus: (Guitar 1)
//Repeat each position several times
2x

e|--------------------------------------------------|
B|--------------------------------------------------|
G|----7--9------------------------------------------|
D|-7--7--9------------------------------------------|
A|-7--5--7------------------------------------------|
E|-5------------------------------------------------|

Pre Chorus: (Guitar 2)
2x

e|--------------------------------------------------|
B|-555-55-555532-777-79-999975----------------------|
G|--------------------------------------------------|
D|--------------------------------------------------|
A|--------------------------------------------------|
E|--------------------------------------------------|

Chorus part 1: (Guitar 1)
//Repeat each position several times
2x

e|--------------------------------------------------|
B|--------------------------------------------------|
G|-------7------------------------------------------|
D|-4--7--7--7---------------------------------------|
A|-4--7--5--7---------------------------------------|
E|-2--5-----5---------------------------------------|

Chorus part 2: (Guitar 1)
//Repeat each position only 1 time
2x

e|--------------------------------------------------|
B|--------------------------------------------------|
G|-7-----9-----7-----------9-9----------------------|
D|-7-----9-----7-----7-----9-9----------------------|
A|-5-----7-----5-----7-----7-7----------------------|
E|-------------------5------------------------------|


Pre Chorus: (Guitar 1)
//Repeat each position several times
2x

e|--------------------------------------------------|
B|--------------------------------------------------|
G|----7--9------------------------------------------|
D|-7--7--9------------------------------------------|
A|-7--5--7------------------------------------------|
E|-5------------------------------------------------|

Pre Chorus: (Guitar 2)
2x

e|--------------------------------------------------|
B|-555-55-555532-777-79-999975----------------------|
G|--------------------------------------------------|
D|--------------------------------------------------|
A|--------------------------------------------------|
E|--------------------------------------------------|

Outro: (Guitar 1)
1x

e|--------------------------------------------------|
B|--------------------------------------------------|
G|-7--9--7--9--7-----9------------------------------|
D|-7--9--7--9--7-----9-----7------------------------|
A|-5--7--5--7--5-----7-----7------------------------|
E|-------------------------5------------------------|

Outro: (Guitar 2)
e|--------------------------------------------------|
B|-77777-99999-77777-99999--------------------------|
G|--------------------------------------------------|
D|--------------------------------------------------|
A|--------------------------------------------------|
E|--------------------------------------------------|
Tap to rate this tab
# A B C D E F G H I J K L M N O P Q R S T U V W X Y Z