Song name
# A B C D E F G H I J K L M N O P Q R S T U V W X Y Z

Green Day - Life During Wartime tab

Green Day Life During Wartime
Cover song
Tabbed by Liam
Email: guitar_rocker_47@hotmail.com
Tuning Standard

This not actually played by Green Day but just Billie Joe, I downloaded this from
or some other audio searching site I cant actually remember, just stick the title in google
you’ll get it. There is many recorded versions on the net, this is the one where Billie 
“this song is called Life During Wartime” before he starts, have fun and I’m tabbing
he plays it so its easier and there will be no order at the bottom.

Intro
E|-----------------------------------|---------------------------------|
B|-----------------------------------|---------------------------------|
G|------------5-3--66666666-x-8-8-88-|----------5-3--66666666-x-8-8-88-|
D|-x-66666666-5-3--66666666-x-8-8-88-|-66666666-5-3--66666666-x-8-8-88-|
A|-x-66666666-3-1--44444444-x-6-6-66-|-66666666-3-1--44444444-x-6-6-66-|
E|-x-44444444------------------------|-44444444------------------------|

Verse
(“yeah we say...”)
E|----------------------------------------------|
B|----------------------------------------------|
G|------66666-8888888888-------66666-8888888888-|
D|-6666-66666-8888888888--6666-66666-8888888888-|
A|-6666-44444-6666666666--6666-44444-6666666666-|
E|-4444-------------------4444------------------|

(“we’re doing something...”)
E|----------------------------------------------------|
B|----------------------------------------------------|
G|------66666-------66666-------66666--88888-88888888-|
D|-3333-66666--3333-66666--3333-66666--88888-88888888-|
A|-3333-44444--3333-44444--3333-44444--66666-66666666-|
E|-1111--------1111--------1111-----------------------|

Chorus (no lyrics)
E|---------------------------------|---------------------------------|
B|---------------------------------|---------------------------------|
G|----------5-3--66666666-x-8-8-88-|----------5-3--66666666-x-8-8-88-|
D|-66666666-5-3--66666666-x-8-8-88-|-66666666-5-3--66666666-x-8-8-88-|
A|-66666666-3-1--44444444-x-6-6-66-|-66666666-3-1--44444444-x-6-6-66-|
E|-44444444------------------------|-44444444------------------------|

Verse 2
(“it used to be us and...”
E|--------------------------------------------------|
B|--------------------------------------------------|
G|-------666666-8888888888--------666666-8888888888-|
D|-66666-666666-8888888888--66666-666666-8888888888-|
A|-66666-444444-6666666666--66666-444444-6666666666-|
E|-44444--------------------44444-------------------|
PM  ****  * * *  ** * * **   ****  * * *  ** * * **

(“a real war to...”)
E|----------------------------------------------------|
B|----------------------------------------------------|
G|------66666-------66666-------66666--88888-88888888-|
D|-3333-66666--3333-66666--3333-66666--88888-88888888-|
A|-3333-44444--3333-44444--3333-44444--66666-66666666-|
E|-1111--------1111--------1111-----------------------|

Bridge
(“lie”)
E|---------------------------------|-------------------------------------------------|
B|---------------------------------|-------------------------------------------------|
G|-6---6------------6---6----------|-6---6-----------66666666-666666-88888888-888888-|
D|-6-4-6-x-66-4-6---6-4-6-x-66-4-6-|-6-4-6-x-66-4-6--66666666-666666-88888888-888888-|
A|-4-4-4-x-66-4-6---4-4-4-x-66-4-6-|-4-4-4-x-66-4-6--44444444-444444-66666666-666666-|
E|-------x-44-2-4---------x-44-2-4-|-------x-44-2-4----------------------------------|

(“a call to action and...”)
E|---------------------------------|-------------------------------------------------|
B|---------------------------------|-------------------------------------------------|
G|-6-xxxxx----------6-xxxxx--------|-6-xxxxx---------66666666-666666-88888888-888888-|
D|-6-xxxxx-66-4-6---6-xxxxx-66-4-6-|-6-xxxxx-66-4-6--66666666-666666-88888888-888888-|
A|-4-xxxxx-66-4-6---4-xxxxx-66-4-6-|-4-xxxxx-66-4-6--44444444-444444-66666666-666666-|
E|---------44-2-4-----------44-2-4-|---------44-2-4----------------------------------|

Bridge part 2
(“but war is going...”
E|-----------------------------------------------------------|
B|-----------------------------------------------------------|
G|------66666-------66666-------66666--6---------6-----------|
D|-3333-66666--3333-66666--3333-66666--6-666666-66-666666----|
A|-3333-44444--3333-44444--3333-44444--4-444444-44-444444----|
E|-1111--------1111--------1111------------------------------|
PM                                       ****** *   ******

E|---------------------------------------------|
B|---------------------------------------------|
G|-8-888888--8-8888888--8-8888888--8-888888888-|
D|-8-888888--8-8888888--8-8888888--8-888888888-|
A|-6-666666--6-6666666--6-6666666--6-666666666-|
E|---------------------------------------------|
   #         #          #          #

Outro
E|---------------------------------|--------------------------------------------|
B|---------------------------------|--------------------------------------------|
G|----------5-3--66666666-x-8-8-88-|----------5-3--66666666-x-8-8-88------------|
D|-66666666-5-3--66666666-x-8-8-88-|-66666666-5-3--66666666-x-8-8-88--6~~~~~~-6-|
A|-66666666-3-1--44444444-x-6-6-66-|-66666666-3-1--44444444-x-6-6-66--6~~~~~~-6-|
E|-44444444------------------------|-44444444-------------------------4~~~~~~-4-|
                                                                              #


There you go, hope you like it?

Key

x = fretting had mute
* = Strumming hand mute (a.k.a. palm mute)
# = add accent to the note/chord
~ = let note/chord ring out
Tap to rate this tab
# A B C D E F G H I J K L M N O P Q R S T U V W X Y Z