Song name
# A B C D E F G H I J K L M N O P Q R S T U V W X Y Z

Green Day - Stay The Night tab

 This version is 99.9% correct. If you have found some mistakes or something just
doesn't sound right send me an email at bubbleboygranmoe@yahoo.com and I will be
more than happy to fix it!

Also rate and comment!!!

Guitar 1: Billie Joe Armstrong
Guitar 2: Jason White

Palm Mute = *




Intro:
 Guitar 1
E|-------------------------------|---------------------------------|--------|
B|-------------------------------|---------------------------------|--------|
G|--11-11-12-14-14-12-11-11-9-11-|-11-11-12-14-14-14-14----------9-|--11-11-|
D|--0--0--0--0--0--0--0--0--0-0--|-0--0--0--0--0--0--0--11-11-12-0-|--0--0--|
A|-------------------------------|----------------------0--0--0----|--------|
E|-------------------------------|---------------------------------|--------|

E|------------------------|-------------------|
B|------------------------|-------------------|
G|-12-14-14-14-0--0--0--0-|-------------------|
D|-0--0--0--0--12-12-11-9-|-11-11-12-14-12-11-|
A|------------------------|-0--0--0--0--0--0--|
E|------------------------|-------------------|


Verse Pt. 1:
 Guitar 1
E|--------------------------------------------------------------|
B|--------------------------------------------------------------|
G|-7--7-7-7-7-7-7----------7------------------------------------|
D|-7--7-7-7-7-7-7--7--7-7--7--7--5--5-5-5-5-5-5--7--7-7-7-7-7-7-|x2
A|-5--5-5-5-5-5-5--7--7-7--5--7--5--5-5-5-5-5-5--7--7-7-7-7-7-7-|
E|-----------------5--5-5-----5--3--3-3-3-3-3-3--5--5-5-5-5-5-5-|
                                                                             Guitar 2
E|--------------------------------------------------------------|
B|--------------------------------------------------------------|
G|-7--7-7-7-7-7-7----------7------------------------------------|
D|-7--7-7-7-7-7-7--7--7-7--7--7--5--5-5-5-5-5-5--7--7-7-7-7-7-7-|x2
A|-5--5-5-5-5-5-5--7--7-7--5--7--5--5-5-5-5-5-5--7--7-7-7-7-7-7-|
E|-----------------5--5-5-----5--3--3-3-3-3-3-3--5--5-5-5-5-5-5-|


Verse Pt.2
 Guitar 1
E|-------|
B|-------|
G|-7-7---|
D|-7-7---| (x4)
A|-5-5---|
E|-------|

 Guitar 2
   Palm Muted
  1st & 3rd time       2nd & 4th time
E|------------------|------------------|
B|------------------|------------------|
G|-7----------------|-7----------------|
D|-7-(x16)--7-------|-7-(x16)-5------7-|
A|-5--------7-(x16)-|-5-------5-(x8)-7-|
E|----------5-------|---------3------5-|
   *        *         *       *      *


Pre-Chorus:
 Guitar 1
                                             On 2nd time cont.
                                          Strumming till the chorus
E|------------------------------------------|----------------|
B|------------------------------------------|----------------|
G|-4--4--4-4-4------------------7--7--7-7-7-|----------------|
D|-4--4--4-4-4--5--5-5-5-5-5-5--7--7--7-7-7-|-7--7-7-7-7-7-7-|x2
A|-2--2--2-2-2--5--5-5-5-5-5-5--5--5--5-5-5-|-7--7-7-7-7-7-7-|
E|--------------3--3-3-3-3-3-3--------------|-5--5-5-5-5-5-5-|

Guitar 2
                                              On 2nd time cont.
                                          Strumming till the chorus
E|------------------------------------------|----------------|
B|------------------------------------------|----------------|
G|------------------------------7--7--7-7-7-|----------------|
D|-9--9--9-9-9--5--5-5-5-5-5-5--7--7--7-7-7-|-7--7-7-7-7-7-7-|x2
A|-9--9--9-9-9--5--5-5-5-5-5-5--5--5--5-5-5-|-7--7-7-7-7-7-7-|
E|-7--7--7-7-7--3--3-3-3-3-3-3--------------|-5--5-5-5-5-5-5-|


Chorus:
 Guitar 1
E|--------------------------------------------------------------|
B|--------------------------------------------------------------|
G|-7--7-7-7-7-7-7----------7------------------------------------|
D|-7--7-7-7-7-7-7--7--7-7--7--7--5--5-5-5-5-5-5--7--7-7-7-7-7-7-|x5
A|-5--5-5-5-5-5-5--7--7-7--5--7--5--5-5-5-5-5-5--7--7-7-7-7-7-7-|
E|-----------------5--5-5-----5--3--3-3-3-3-3-3--5--5-5-5-5-5-5-|
                                                                             Guitar 2
E|--------------------------------------------------------------|
B|--------------------------------------------------------------|
G|-7--7-7-7-7-7-7----------7------------------------------------|
D|-7--7-7-7-7-7-7--7--7-7--7--7--5--5-5-5-5-5-5--7--7-7-7-7-7-7-|x5
A|-5--5-5-5-5-5-5--7--7-7--5--7--5--5-5-5-5-5-5--7--7-7-7-7-7-7-|
E|-----------------5--5-5-----5--3--3-3-3-3-3-3--5--5-5-5-5-5-5-|


Verse:
 Guitar 1
E|-------|
B|-------|
G|-7-7---|
D|-7-7---| (x4)
A|-5-5---|
E|-------|

 Guitar 2
   Palm Muted
  1st & 3rd time       2nd & 4th time
E|------------------|------------------|
B|------------------|------------------|
G|-7----------------|-7----------------|
D|-7-(x16)--7-------|-7-(x16)-5------7-|
A|-5--------7-(x16)-|-5-------5-(x8)-7-|
E|----------5-------|---------3------5-|
   *        *         *       *      *


Pre-Chorus:
 Guitar 1
                                             On 2nd time cont.
                                          Strumming till the chorus
E|------------------------------------------|----------------|
B|------------------------------------------|----------------|
G|-4--4--4-4-4------------------7--7--7-7-7-|----------------|
D|-4--4--4-4-4--5--5-5-5-5-5-5--7--7--7-7-7-|-7--7-7-7-7-7-7-|x2
A|-2--2--2-2-2--5--5-5-5-5-5-5--5--5--5-5-5-|-7--7-7-7-7-7-7-|
E|--------------3--3-3-3-3-3-3--------------|-5--5-5-5-5-5-5-|

Guitar 2
                                              On 2nd time cont.
                                          Strumming till the chorus
E|------------------------------------------|----------------|
B|------------------------------------------|----------------|
G|------------------------------7--7--7-7-7-|----------------|
D|-9--9--9-9-9--5--5-5-5-5-5-5--7--7--7-7-7-|-7--7-7-7-7-7-7-|x2
A|-9--9--9-9-9--5--5-5-5-5-5-5--5--5--5-5-5-|-7--7-7-7-7-7-7-|
E|-7--7--7-7-7--3--3-3-3-3-3-3--------------|-5--5-5-5-5-5-5-|


Chorus:
 Guitar 1
E|--------------------------------------------------------------|
B|--------------------------------------------------------------|
G|-7--7-7-7-7-7-7----------7------------------------------------|
D|-7--7-7-7-7-7-7--7--7-7--7--7--5--5-5-5-5-5-5--7--7-7-7-7-7-7-|x4
A|-5--5-5-5-5-5-5--7--7-7--5--7--5--5-5-5-5-5-5--7--7-7-7-7-7-7-|
E|-----------------5--5-5-----5--3--3-3-3-3-3-3--5--5-5-5-5-5-5-|
                                                                             Guitar 2
E|--------------------------------------------------------------|
B|--------------------------------------------------------------|
G|-7--7-7-7-7-7-7----------7------------------------------------|
D|-7--7-7-7-7-7-7--7--7-7--7--7--5--5-5-5-5-5-5--7--7-7-7-7-7-7-|x4
A|-5--5-5-5-5-5-5--7--7-7--5--7--5--5-5-5-5-5-5--7--7-7-7-7-7-7-|
E|-----------------5--5-5-----5--3--3-3-3-3-3-3--5--5-5-5-5-5-5-|


Bridge Pt.1:
 Guitar 1
E|-------------------------------|---------------------------------|--------|
B|-------------------------------|---------------------------------|--------|
G|--11-11-12-14-14-12-11-11-9-11-|-11-11-12-14-14-14-14----------9-|--11-11-|
D|--0--0--0--0--0--0--0--0--0-0--|-0--0--0--0--0--0--0--11-11-12-0-|--0--0--|
A|-------------------------------|----------------------0--0--0----|--------|
E|-------------------------------|---------------------------------|--------|

E|------------------------|-------------------|
B|------------------------|-------------------|
G|-12-14-14-14-0--0--0--0-|-------------------|
D|-0--0--0--0--12-12-11-9-|-11-11-12-14-12-11-|
A|------------------------|-0--0--0--0--0--0--|
E|------------------------|-------------------|


Bridge Pt.2:
 Guitar 1
E|-2--2-2-2-2-2-2----------2-----3--3-3-3-3-3-3-----------------|
B|-3--3-3-3-3-3-3----------3-----3--3-3-3-3-3-3-----------------|
G|-2--2-2-2-2-2-2--2--2-2--2--2--0--0-0-0-0-0-0--2--2-2-2-2-2-2-|
D|-0--0-0-0-0-0-0--2--2-2--0--2--0--0-0-0-0-0-0--2--2-2-2-2-2-2-|x4
A|-----------------0--0-0-----0--2--2-2-2-2-2-2--0--0-0-0-0-0-0-|
E|-------------------------------3--3-3-3-3-3-3-----------------|
                                                                             Guitar 2
E|--------------------------------------------------------------|
B|--------------------------------------------------------------|
G|-7--7-7-7-7-7-7----------7------------------------------------|
D|-7--7-7-7-7-7-7--7--7-7--7--7--5--5-5-5-5-5-5--7--7-7-7-7-7-7-|x4
A|-5--5-5-5-5-5-5--7--7-7--5--7--5--5-5-5-5-5-5--7--7-7-7-7-7-7-|
E|-----------------5--5-5-----5--3--3-3-3-3-3-3--5--5-5-5-5-5-5-|


Bridge Pt.3
 Guitar 1
E|-----------------------------|
B|-----------------------------|
G|-11-----19-----11-----9------|
D|-x-(x8)-x-(x8)-x-(x8)-x-(x8)-|
A|-9------17-----9------7------|
E|-----------------------------|


Chorus:
 Guitar 1
E|--------------------------------------------------------------|
B|--------------------------------------------------------------|
G|-7--7-7-7-7-7-7----------7------------------------------------|
D|-7--7-7-7-7-7-7--7--7-7--7--7--5--5-5-5-5-5-5--7--7-7-7-7-7-7-|x4
A|-5--5-5-5-5-5-5--7--7-7--5--7--5--5-5-5-5-5-5--7--7-7-7-7-7-7-|
E|-----------------5--5-5-----5--3--3-3-3-3-3-3--5--5-5-5-5-5-5-|
                                                                             Guitar 2
E|--------------------------------------------------------------|
B|--------------------------------------------------------------|
G|-7--7-7-7-7-7-7----------7------------------------------------|
D|-7--7-7-7-7-7-7--7--7-7--7--7--5--5-5-5-5-5-5--7--7-7-7-7-7-7-|x4
A|-5--5-5-5-5-5-5--7--7-7--5--7--5--5-5-5-5-5-5--7--7-7-7-7-7-7-|
E|-----------------5--5-5-----5--3--3-3-3-3-3-3--5--5-5-5-5-5-5-|


Outro Pt.1:
 Guitar 1
E|-------------------------------|---------------------------------|--------|
B|-------------------------------|---------------------------------|--------|
G|--11-11-12-14-14-12-11-11-9-11-|-11-11-12-14-14-14-14----------9-|--11-11-|
D|--0--0--0--0--0--0--0--0--0-0--|-0--0--0--0--0--0--0--11-11-12-0-|--0--0--|
A|-------------------------------|----------------------0--0--0----|--------|
E|-------------------------------|---------------------------------|--------|

E|------------------------|-------------------|
B|------------------------|-------------------|
G|-12-14-14-14-0--0--0--0-|-------------------|
D|-0--0--0--0--12-12-11-9-|-11-11-12-14-12-11-|
A|------------------------|-0--0--0--0--0--0--|
E|------------------------|-------------------|

Outro Pt.2:
 Guitar 1
 Play continuously till music stops
E|---|
B|---|
G|-7-|
D|-7-|
A|-5-|
E|---|

 Guitar 2
 Play continuously till music stops
E|---|
B|---|
G|-7-|
D|-7-|
A|-5-|
E|---|
Tap to rate this tab
# A B C D E F G H I J K L M N O P Q R S T U V W X Y Z