Song name
# A B C D E F G H I J K L M N O P Q R S T U V W X Y Z

Green Day - Stay The Night tab

Artist: Green Day
Album: ĦUNO!
Song: Stay The Night
Instrument: Guitar
Submitter: GuitarPunk94

Feel free to rate + comment! :-)

Standard Tuning


Key:
-  - Nothing
.  - Palm mute
x  - Mute strings
/ - Slide up or down



 Intro:
|---------------------|-------------------|----------------|----------------|
|---------------------|-------------------|----------3-1-0-|----------------|
|11-12-14-12-11-9--11-|-11-12-14----------|-11-12-14-2-2-0-|----------------|
|12-12-12-12-12-12-12-|-12-12-12-11-12-14-|-12-12-12-------|-11-12-14-12-11-|
|---------------------|----------12-12-12-|----------------|-12-12-12-12-12-|
|---------------------|-------------------|----------------|----------------|

                           Verse 1:
|------------|------------|-------------|------------|
|------------|------------|-------------|------------|
|-7---7------|7---7-----7-|-7---77------|77---77-----|
|-7-7-7-5-7--|7-7-7-5-7-7-|-7-5-77-5-7--|77-5-77-5-7-|
|-5-7-5-5-7--|5-7-5-5-7-5-|-5-5-55-5-7--|55-5-55-5-7-|
|---5---3-5--|--5---3-5---|---3----3-5--|---3----3-5-|
                            . .  . . .    . .  . . .

 Pre-Chorus:          Chorus: (2x)                 
|------------|------------|-------------|------------|
|------------|------------|-------------|------------|
|-4---7-2-4--|-7------7---|7-----7---7--|------------|
|-4-5-7-2-4-5|-7-7----7-7-|7-5-7-7-7-7-5|-7----------|
|-2-5-5-0-2-5|-5-7----5-7-|5-5-7-5-7-5-5|-7----------|
|---3-------3|---5------5-|--3-5---5---3|-5----------|

              Verse 2:
|------------|-------------|-----------------|
|------------|-------------|--------5--------|
|7---7-----7-|-7---77------|77---77--7-7-----|
|7-7-7-5-7-7-|-7-5-77-5-7--|77-5-77---7--5-7-|
|5-7-5-5-7-5-|-5-5-55-5-7--|55-5-55------5-7-|
|--5---3-5---|---3----3-5--|---3---------3-5-|
               . .  . . .    . .  .      . .

 Pre-Chorus:          Chorus: (2x)                 
|------------|------------|-------------|------------|
|------------|------------|-------------|------------|
|-4---7-2-4--|-7------7---|7-----7---7--|------------|
|-4-5-7-2-4-5|-7-7----7-7-|7-5-7-7-7-7-5|-7----------|
|-2-5-5-0-2-5|-5-7----5-7-|5-5-7-5-7-5-5|-7----------|
|---3-------3|---5------5-|--3-5---5---3|-5----------|
 
 Bridge:
|---------------------|-------------------|----------------|----------------|
|---------------------|-------------------|----------3-1-0-|----------------|
|11-12-14-12-11-9--11-|-11-12-14----------|-11-12-14-2-2-0-|----------------|
|12-12-12-12-12-12-12-|-12-12-12-11-12-14-|-12-12-12-------|-11-12-14-12-11-|
|---------------------|----------12-12-12-|----------------|-12-12-12-12-12-|
|---------------------|-------------------|----------------|----------------|

  
 Solo/Breakdown:

 |2x***************************************| |4x****|
|------------|------------|-------------|----------------------|
|------------|------------|-------------|-----0-8-7-5----------|
|-11-9-11-12-|9-12--11-9-7|-11-9-7--7\6/|7/9-------------------|
|-x--x-x--x--|x-x---x--x-x|-x--x-x--xxxx|xxx----------77-------|
|-9--7-9--10-|7-10--9--7-5|-9--7-5--5\4/|5/7----------77-------|
|------------|------------|-------------|-------------55-------|
                                                      .
 Chorus: (2x)                 
|------------|-------------|------------|
|------------|-------------|------------|
|-7------7---|7-----7---7--|------------|
|-7-7----7-7-|7-5-7-7-7-7-5|-7----------|
|-5-7----5-7-|5-5-7-5-7-5-5|-7----------|
|---5------5-|--3-5---5---3|-5----------|
 
 Outro:
|---------------------|-------------------|----------------|----------------|
|---------------------|-------------------|----------3-1-0-|----------------|
|11-12-14-12-11-9--11-|-11-12-14----------|-11-12-14-2-2-0-|----------------|
|12-12-12-12-12-12-12-|-12-12-12-11-12-14-|-12-12-12-------|-11-12-14-12-11-|
|---------------------|----------12-12-12-|----------------|-12-12-12-12-12-|
|---------------------|-------------------|----------------|----------------|

|---------|
|---------|
|-7777-7\-|
|-7777-7\-|
|-5555-5\-|
|---------|
Tap to rate this tab
# A B C D E F G H I J K L M N O P Q R S T U V W X Y Z