Song name
# A B C D E F G H I J K L M N O P Q R S T U V W X Y Z

Green Day - Stop When The Red Lights Flash tab

Hey, this is my first tab, but i think it's accurate. If you think that something 
is wrong write me  to 
leischnerjakub@seznam.cz
I haven't complete the solo yet, but i'll upload it early.
Made for this live version: http://www.youtube.com/watch?v=dGUwFM5j918
You can skip palm muted part, if you want to.
Date:17.10.2012
Thanks and good luck 

Green day - Stop when the red light flash
Dos
2012

Intro

e|------------------------|
B|------------------------|
G|------7-----------------|
D|--7-7-7--7-5-7----------|      12X
A|--7-7-5--7-5-7----------| 
E|--5-5----5-3-5----------|


Verse:

   Uncomfortable silence
e|-------------------------|
B|-------------------------|
G|--7-7-777777777777-------|
D|--7-7-777777777777--77---|
A|--5-5-555555555555--77---| 
E|--------------------55---|

 I'll kill it if you want me to
e|-----------------------------------------------|
B|-----------------------------------------------|
G|--5-5-5555555555555555------7---------------7--|
D|--5-5-5555555555555555--7-7-7-7-5-7--7-7-7-7-5-|     
A|--7-7-7777777777777777--7-7-5-7-5-7--7-7-5-7-5-|
E|------------------------5-5---5-3-5--5-5---5-3-|


 I'm like the surveillance
e|-------------------------|
B|-------------------------|
G|--7-7-777777777777-------|
D|--7-7-777777777777--77---|
A|--5-5-555555555555--77---| 
E|--------------------55---|

 I'll kill it if you want me to
e|-----------------------------------------------|
B|-----------------------------------------------|
G|--5-5-5555555555555555------7---------------7--|
D|--5-5-5555555555555555--7-7-7-7-5-7--7-7-7-7-5-|     
A|--7-7-7777777777777777--7-7-5-7-5-7--7-7-5-7-5-|
E|------------------------5-5---5-3-5--5-5---5-3-|



Out of sight, out of mind
e|-----------------------|
B|-----------------------|
G|-99999999999999999999--|
D|-99999999999999999999--|
A|-77777777777777777777--| 
E|-----------------------|


I'm not the hurting kind
e|-----------------------|
B|-----------------------|
G|-77777777777777777777--|
D|-77777777777777777777--|
A|-55555555555555555555--| 
E|-----------------------|



REF:

I'll make you surrender
e|------------------------|
B|------------------------|
G|--------7---------------|     4X
D|---7-7--7---7-5-7-------|   
A|---7-7--5---7-5-7-------| 
E|---5-5------5-3-5-------|


Verse:

 Stop when the red lights flash
e|---------------------------------|
B|---------------------------------|
G|--7-7-77777777777777777777-------|
D|--7-7-77777777777777777777--77---|
A|--5-5-55555555555555555555--77---| 
E|----------------------------55---|

I'll trade you blood for dirty cash
e|---------------------------------------------------|
B|---------------------------------------------------|
G|--5-5-55555555555555555555------7---------------7--|
D|--5-5-55555555555555555555--7-7-7-7-5-7--7-7-7-7-5-|     
A|--7-7-77777777777777777777--7-7-5-7-5-7--7-7-5-7-5-|
E|----------------------------5-5---5-3-5--5-5---5-3-|


  Life in the catacombs
e|-------------------------|
B|-------------------------|
G|--7-7-777777777777-------|
D|--7-7-777777777777--77---|
A|--5-5-555555555555--77---| 
E|--------------------55----|

  That make me fee like I'm alone
e|--------------------------------------------------|
B|--------------------------------------------------|
G|--5-5-5555555555555555555------7------------7-----|
D|--5-5-5555555555555555555--7-7-7-7-5-7--7-7-7-7-5-|     
A|--7-7-7777777777777777777--7-7-5-7-5-7--7-7-5-7-5-|
E|---------------------------5-5---5-3-5--5-5---5-3-|



Out of sight, out of mind
e|--------------------------|
B|--------------------------|
G|-99999999999999999999999--|
D|-99999999999999999999999--|
A|-77777777777777777777777--| 
E|--------------------------|


   I'm not the hurting kind
e|--------------------------|
B|--------------------------|
G|-77777777777777777777777--|
D|-77777777777777777777777--|
A|-55555555555555555555555--| 
E|--------------------------|


REF:

I'll make you surrender
e|------------------------|
B|------------------------|
G|--------7---------------|     4X
D|---7-7--7---7-5-7-------|   
A|---7-7--5---7-5-7-------| 
E|---5-5------5-3-5-------|


Solo

Gtr. 1
     
e|---------------------------------|
B|---------------------------------|
G|--7-7-77777777777777777777-------|
D|--7-7-77777777777777777777--77---| then
A|--5-5-55555555555555555555--77---|
E|----------------------------55---|

e|--------------------------------------------------|
B|--------------------------------------------------|
G|--5-5-5555555555555555555------7------------7-----|
D|--5-5-5555555555555555555--7-7-7-7-5-7--7-7-7-7-5-| 2X    
A|--7-7-7777777777777777777--7-7-5-7-5-7--7-7-5-7-5-|
E|---------------------------5-5---5-3-5--5-5---5-3-|





Bridge
 
P.M.***************
   e|------------------|
   B|------------------|
   G|-999999999999999--| 32X(I think its right) 
   D|-999999999999999--|
   A|-777777777777777--| 
   E|------------------|

 Out of sight, out of mind
P.M.******************
e|-----------------------|
B|-----------------------|
G|-99999999999999999999--|
D|-99999999999999999999--|
A|-77777777777777777777--| 
E|-----------------------|


Just give in one more time
P.M.*******************
e|-----------------------|
B|-----------------------|
G|-77777777777777777777--|
D|-77777777777777777777--|
A|-55555555555555555555--| 
E|-----------------------|



REF:

I'll make you surrender
e|-------------------------|
B|-------------------------|
G|---------7---------------|     8X
D|----7-7--7---7-5-7-------|   
A|----7-7--5---7-5-7-------| 
E|----5-5------5-3-5-------|


End on 

e|---|
B|---|
G|---|    
D|-7-|   
A|-7-| 
E|-5-|
Tap to rate this tab
# A B C D E F G H I J K L M N O P Q R S T U V W X Y Z