Song name
# A B C D E F G H I J K L M N O P Q R S T U V W X Y Z

Green Day - Nuclear Family tab

Green Day
Nuclear Family
iUno!
Tabbed by TheSlyFooX
Billie Joe Armstrong and Jason White play this song and secretly two of the 
greatest punk guitarists the world has ever seen.  
Please rate and comment and friend me here at Ckerns@westernlocalstudents.com!

Intro
e:-------------------------------------------------|
B:-------------------------------------------------|
G:-9-9-9-9--9-9-9-9-9-9-9--9-999-9-9-9--9-9-9--9-9-|
D:-9-9-9-9--9-9-9-9-9-9-9--9-999-9-9-9--9-9-9--9-9-|
A:-0-7-0-7--0-7-0-7-0-7-7--7-777-7-0-7--0-7-7--7-0-|
E:-------------------------------------------------|

e:----------------------------------------------------------------|
B:----------------------------------------------------------------|
G:-9-9-9-9-9-9-9-9-9-9-9-9-9-9-9-------------------9-9-9----------|
D:-9-9-9-9-9-9-9-9-9-9-9-9-9-9-9---7-7-7-7-7-7-7-7-9-9-9-9--9-9---|
A:-7-7-7-7-7-7-7-7-7-7-7-7-7-7-7---7-7-7-7-7-7-7-7-7-7-7-9--9-9---|
E:-------------------------------0-5-5-5-5-5-5-5-5-------7--7-7-0-|

e:------------------------------------------------------------------|
B:------------------------------------------------------------------|
G:-9-9-9-9-9-9-9-9-9-8-8-8-6-6-4-4-2-2-2-2-2-2-2-2-9-9-9-4--4-4---9-|
D:-x-x-x-x-x-x-x-x-x-x-x-x-x-x-x-x-x-x-x-x-x-x-x-x-x-x-x-x--x-x---9-|
A:-7-7-7-7-7-7-7-7-7-6-6-6-4-4-2-2-0-0-0-0-0-0-0-0-7-7-7-2--2-2---7-|
E:------------------------------------------------------------------|

Verse
e:-------|---------------------------------|
B:-Just--|---------------------------------|
G:-BJ----|----------------9-9-9----------9-|
D:-And---|-7--7-7-7-7-7-7-9-9-9-9--9-9---9-|
A:-Drums-|-7--7-7-7-7-7-7-7-7-7-9--9-9---7-|
E:-------|-5--5-5-5-5-5-5-------7--7-7-0---|

e:-------|---------------------------------|
B:-Just--|---------------------------------|
G:-BJ----|----------------9-9-9----------9-|
D:-And---|-7--7-7-7-7-7-7-9-9-9-9--9-9---9-|
A:-Drums-|-7--7-7-7-7-7-7-7-7-7-9--9-9---7-|
E:-------|-5--5-5-5-5-5-5-------7--7-7-0---|

e:-------|---------------------------------|
B:-Just--|---------------------------------|
G:-BJ----|----------------9-9-9----------9-|
D:-And---|-7--7-7-7-7-7-7-9-9-9-9--9-9---9-|
A:-Drums-|-7--7-7-7-7-7-7-7-7-7-9--9-9---7-|
E:-------|-5--5-5-5-5-5-5-------7--7-7-0---|

e:-------|---------------------------------|
B:-Just--|---------------------------------|
G:-BJ----|----------------9-9-9----------9-|
D:-And---|-7--7-7-7-7-7-7-9-9-9-9--9-9---9-|
A:-Drums-|-7--7-7-7-7-7-7-7-7-7-9--9-9---7-|
E:-------|-5--5-5-5-5-5-5-------7--7-7-0---|

Chorus
e:-----------------------------------------------------------------|
B:-----------------------------------------------------------------|
G:-----------------------------------------------------------------|
D:-7-7-7-7-7-7-7-7-7-7-7-7-7-7-7-7-7-7-7-7-7-7-7-7-7-7-7-7-7-7-7---|
A:-7-7-7-7-7-7-7-7-7-7-7-7-7-7-7-7-7-7-7-7-7-7-7-7-7-7-7-7-7-7-7---|
E:-5-5-5-5-5-5-5-5-5-5-5-5-5-5-5-5-5-5-5-5-5-5-5-5-5-5-5-5-5-5-5-0-|

e:------------------------|
B:------------------------|
G:-9-9-9-9--9-9-9-9-9-9-9-|
D:-9-9-9-9--9-9-9-9-9-9-9-|
A:-7-7-0-7--0-7-0-7-0-7-7-|
E:------------------------|

e:-----------------------------------------------------------------|
B:-----------------------------------------------------------------|
G:-----------------------------------------------------------------|
D:-7-7-7-7-7-7-7-7-7-7-7-7-7-7-7-7-7-7-7-7-7-7-7-7-7-7-7-7-7-7-7---|
A:-7-7-7-7-7-7-7-7-7-7-7-7-7-7-7-7-7-7-7-7-7-7-7-7-7-7-7-7-7-7-7---|
E:-5-5-5-5-5-5-5-5-5-5-5-5-5-5-5-5-5-5-5-5-5-5-5-5-5-5-5-5-5-5-5-0-|

e:---------------------------------|
B:---------------------------------|
G:-------------------------------9-|
D:-9-9--9--9-9-9-9--9-9--9-9-9---9-|
A:-9-9--9--9-9-9-9--9-9--9-9-9---7-|
E:-7-7--7--7-7-0-7--7-7--7-7-7-0---|

Verse
e:-------|---------------------------------|
B:-Just--|---------------------------------|
G:-BJ----|----------------9-9-9----------9-|
D:-And---|-7--7-7-7-7-7-7-9-9-9-9--9-9---9-|
A:-Drums-|-7--7-7-7-7-7-7-7-7-7-9--9-9---7-|
E:-------|-5--5-5-5-5-5-5-------7--7-7-0---|

e:-------|---------------------------------|
B:-Just--|---------------------------------|
G:-BJ----|----------------9-9-9----------9-|
D:-And---|-7--7-7-7-7-7-7-9-9-9-9--9-9---9-|
A:-Drums-|-7--7-7-7-7-7-7-7-7-7-9--9-9---7-|
E:-------|-5--5-5-5-5-5-5-------7--7-7-0---|

e:-------|---------------------------------|
B:-Just--|---------------------------------|
G:-BJ----|----------------9-9-9----------9-|
D:-And---|-7--7-7-7-7-7-7-9-9-9-9--9-9---9-|
A:-Drums-|-7--7-7-7-7-7-7-7-7-7-9--9-9---7-|
E:-------|-5--5-5-5-5-5-5-------7--7-7-0---|

e:-------|---------------------------------|
B:-Just--|---------------------------------|
G:-BJ----|----------------9-9-9----------9-|
D:-And---|-7--7-7-7-7-7-7-9-9-9-9--9-9---9-|
A:-Drums-|-7--7-7-7-7-7-7-7-7-7-9--9-9---7-|
E:-------|-5--5-5-5-5-5-5-------7--7-7-0---|

Chorus
e:-----------------------------------------------------------------|
B:-----------------------------------------------------------------|
G:-----------------------------------------------------------------|
D:-7-7-7-7-7-7-7-7-7-7-7-7-7-7-7-7-7-7-7-7-7-7-7-7-7-7-7-7-7-7-7---|
A:-7-7-7-7-7-7-7-7-7-7-7-7-7-7-7-7-7-7-7-7-7-7-7-7-7-7-7-7-7-7-7---|
E:-5-5-5-5-5-5-5-5-5-5-5-5-5-5-5-5-5-5-5-5-5-5-5-5-5-5-5-5-5-5-5-0-|

e:------------------------|
B:------------------------|
G:-9-9-9-9--9-9-9-9-9-9-9-|
D:-9-9-9-9--9-9-9-9-9-9-9-|
A:-7-7-0-7--0-7-0-7-0-7-7-|
E:------------------------|

e:-----------------------------------------------------------------|
B:-----------------------------------------------------------------|
G:-----------------------------------------------------------------|
D:-7-7-7-7-7-7-7-7-7-7-7-7-7-7-7-7-7-7-7-7-7-7-7-7-7-7-7-7-7-7-7---|
A:-7-7-7-7-7-7-7-7-7-7-7-7-7-7-7-7-7-7-7-7-7-7-7-7-7-7-7-7-7-7-7---|
E:-5-5-5-5-5-5-5-5-5-5-5-5-5-5-5-5-5-5-5-5-5-5-5-5-5-5-5-5-5-5-5-0-|

e:---------------------------------|
B:---------------------------------|
G:-------------------------------9-|
D:-9-9--9--9-9-9-9--9-9--9-9-9---9-|
A:-9-9--9--9-9-9-9--9-9--9-9-9---7-|
E:-7-7--7--7-7-0-7--7-7--7-7-7-0---|

Verse
e:---------------------------|---------------------------------|
B:---12-----12----12----12---|---------------------------------|
G:-9-----9-----9------9----9-|----------------9-9-9----------9-|
D:---------------------------|-7--7-7-7-7-7-7-9-9-9-9--9-9---9-|
A:---------------------------|-7--7-7-7-7-7-7-7-7-7-9--9-9---7-|
E:---------------------------|-5--5-5-5-5-5-5-------7--7-7-0---|

e:---------------------------|---------------------------------|
B:---12-----12----12----12---|---------------------------------|
G:-9-----9-----9------9----9-|----------------9-9-9----------9-|
D:---------------------------|-7--7-7-7-7-7-7-9-9-9-9--9-9---9-|
A:---------------------------|-7--7-7-7-7-7-7-7-7-7-9--9-9---7-|
E:---------------------------|-5--5-5-5-5-5-5-------7--7-7-0---|

e:---------------------------|---------------------------------|
B:---12-----12----12----12---|---------------------------------|
G:-9-----9-----9------9----9-|----------------9-9-9----------9-|
D:---------------------------|-7--7-7-7-7-7-7-9-9-9-9--9-9---9-|
A:---------------------------|-7--7-7-7-7-7-7-7-7-7-9--9-9---7-|
E:---------------------------|-5--5-5-5-5-5-5-------7--7-7-0---|

e:---------------------------|---------------------------------|
B:---12-----12----12----12---|---------------------------------|
G:-9-----9-----9------9----9-|----------------9-9-9----------9-|
D:---------------------------|-7--7-7-7-7-7-7-9-9-9-9--9-9---9-|
A:---------------------------|-7--7-7-7-7-7-7-7-7-7-9--9-9---7-|
E:---------------------------|-5--5-5-5-5-5-5-------7--7-7-0---|

Solo
e:-------------------------------------------------------------------------|
B:-----5----5----5----5----5---4---2----5----5----5----5----5---7-----9----|
G:-----7b9--7b9--7b9--7b9--7b9-6b8-4b6--7b9--7b9--7b9--7b9--7b9-9b11-11b13-|
D:-------------------------------------------------------------------------|
A:-------------------------------------------------------------------------|
E:-15\---------------------------------------------------------------------|

e:-----------------------------------|
B:-9--9-9--10--9--12--12-9-10-9-10-9-|
G:-9--9-9---9--9---9---9-9--9-9--9-9-|
D:-----------------------------------|
A:-----------------------------------|
E:-----------------------------------|

e:---------------------------------------------------------------------|
B:-5----5----5----5----5---4---2----5----5----5----5----5----5----5----|
G:-7b9--7b9--7b9--7b9--7b9-6b8-4b6--7b9--7b9--7b9--7b9--7b9--7b9--7b9--|
D:---------------------------------------------------------------------|
A:---------------------------------------------------------------------|
E:---------------------------------------------------------------------|

e:------------------7-----------------|
B:----------------7---12r10b12r10b12~-|
G:-7h9p7---7-9b11---------------------|
D:-------9----------------------------|
A:------------------------------------|
E:------------------------------------|

Verse
e:-------|---------------------------------|
B:-Just--|---------------------------------|
G:-BJ----|----------------9-9-9----------9-|
D:-And---|-7--7-7-7-7-7-7-9-9-9-9--9-9---9-|
A:-Drums-|-7--7-7-7-7-7-7-7-7-7-9--9-9---7-|
E:-------|-5--5-5-5-5-5-5-------7--7-7-0---|

e:-------|---------------------------------|
B:-Just--|---------------------------------|
G:-BJ----|----------------9-9-9----------9-|
D:-And---|-7--7-7-7-7-7-7-9-9-9-9--9-9---9-|
A:-Drums-|-7--7-7-7-7-7-7-7-7-7-9--9-9---7-|
E:-------|-5--5-5-5-5-5-5-------7--7-7-0---|

e:-------|---------------------------------|
B:-Just--|---------------------------------|
G:-BJ----|----------------9-9-9----------9-|
D:-And---|-7--7-7-7-7-7-7-9-9-9-9--9-9---9-|
A:-Drums-|-7--7-7-7-7-7-7-7-7-7-9--9-9---7-|
E:-------|-5--5-5-5-5-5-5-------7--7-7-0---|

e:-------|---------------------------------|
B:-Just--|---------------------------------|
G:-BJ----|----------------9-9-9----------9-|
D:-And---|-7--7-7-7-7-7-7-9-9-9-9--9-9---9-|
A:-Drums-|-7--7-7-7-7-7-7-7-7-7-9--9-9---7-|
E:-------|-5--5-5-5-5-5-5-------7--7-7-0---|

Chorus
e:-----------------------------------------------------------------|
B:-----------------------------------------------------------------|
G:-----------------------------------------------------------------|
D:-7-7-7-7-7-7-7-7-7-7-7-7-7-7-7-7-7-7-7-7-7-7-7-7-7-7-7-7-7-7-7---|
A:-7-7-7-7-7-7-7-7-7-7-7-7-7-7-7-7-7-7-7-7-7-7-7-7-7-7-7-7-7-7-7---|
E:-5-5-5-5-5-5-5-5-5-5-5-5-5-5-5-5-5-5-5-5-5-5-5-5-5-5-5-5-5-5-5-0-|

e:------------------------|
B:------------------------|
G:-9-9-9-9--9-9-9-9-9-9-9-|
D:-9-9-9-9--9-9-9-9-9-9-9-|
A:-7-7-0-7--0-7-0-7-0-7-7-|
E:------------------------|

e:-----------------------------------------------------------------|
B:-----------------------------------------------------------------|
G:-----------------------------------------------------------------|
D:-7-7-7-7-7-7-7-7-7-7-7-7-7-7-7-7-7-7-7-7-7-7-7-7-7-7-7-7-7-7-7---|
A:-7-7-7-7-7-7-7-7-7-7-7-7-7-7-7-7-7-7-7-7-7-7-7-7-7-7-7-7-7-7-7---|
E:-5-5-5-5-5-5-5-5-5-5-5-5-5-5-5-5-5-5-5-5-5-5-5-5-5-5-5-5-5-5-5-0-|

e:---------------------------------|
B:---------------------------------|
G:-------------------------------9-|
D:-9-9--9--9-9-9-9--9-9--9-9-9---9-|
A:-9-9--9--9-9-9-9--9-9--9-9-9---7-|
E:-7-7--7--7-7-0-7--7-7--7-7-7-0---|

Outro
Gtr. 1
e:---------------------------------|---------------------------------|
B:-9-9-9-9-9-9-9-9-9-8-8-6-6-4-4---|-9-9-9-9-9-9-9-9-9-8-8-9-9-11-11-|
G:-x-x-x-x-x-x-x-x-x-x-x-x-x-x-x---|-x-x-x-x-x-x-x-x-x-x-x-x-x--x--x-|
D:-7-7-7-7-7-7-7-7-7-6-6-4-4-2-2-0-|-7-7-7-7-7-7-7-7-7-6-6-7-7--9--9-|
A:---------------------------------|---------------------------------|
E:---------------------------------|---------------------------------|

Gtr. 2
e:---------------------------------|---------------------------------|
B:-0---------------0---------------|-0---------------0---------------|
G:-2b4-------------2b4-------------|-2b4-------------2b4-------------|
D:---------------------------------|---------------------------------|
A:---------------------------------|---------------------------------|
E:---------------------------------|---------------------------------|

Gtr. 1
e:---------------------------------|---------------------------------|
B:-9-9-9-9-9-9-9-9-9-8-8-6-6-4-4---|-9-9-9-9-9-9-9-9-9-8-8-9-9-11-11-|
G:-x-x-x-x-x-x-x-x-x-x-x-x-x-x-x---|-x-x-x-x-x-x-x-x-x-x-x-x-x--x--x-|
D:-7-7-7-7-7-7-7-7-7-6-6-4-4-2-2-0-|-7-7-7-7-7-7-7-7-7-6-6-7-7--9--9-|
A:---------------------------------|---------------------------------|
E:---------------------------------|---------------------------------|

Gtr. 2
e:---------------------------------|---------------------------------|
B:-0---------------0---------------|-0---------------0---------------|
G:-2b4-------------2b4-------------|-2b4-------------2b4-------------|
D:---------------------------------|---------------------------------|
A:---------------------------------|---------------------------------|
E:---------------------------------|---------------------------------|


Gtr. 1
e:---------------------------------|---------------------------------|
B:-9-9-9-9-9-9-9-9-9-8-8-6-6-4-4---|-9-9-9-9-9-9-9-9-9-8-8-9-9-11-11-|
G:-x-x-x-x-x-x-x-x-x-x-x-x-x-x-x---|-x-x-x-x-x-x-x-x-x-x-x-x-x--x--x-|
D:-7-7-7-7-7-7-7-7-7-6-6-4-4-2-2-0-|-7-7-7-7-7-7-7-7-7-6-6-7-7--9--9-|
A:---------------------------------|---------------------------------|
E:---------------------------------|---------------------------------|

Gtr. 2
e:---------------------------------|---------------------------------|
B:-0---------------0---------------|-0---------------0---------------|
G:-2b4-------------2b4-------------|-2b4-------------2b4-------------|
D:---------------------------------|---------------------------------|
A:---------------------------------|---------------------------------|
E:---------------------------------|---------------------------------|


Gtr. 1
e:---------------------------------|---------------------------------|
B:-9-9-9-9-9-9-9-9-9-8-8-6-6-4-4---|-9-9-9-9-9-9-9-9-9-8-8-9-9-11-11-|
G:-x-x-x-x-x-x-x-x-x-x-x-x-x-x-x---|-x-x-x-x-x-x-x-x-x-x-x-x-x--x--x-|
D:-7-7-7-7-7-7-7-7-7-6-6-4-4-2-2-0-|-7-7-7-7-7-7-7-7-7-6-6-7-7--9--9-|
A:---------------------------------|---------------------------------|
E:---------------------------------|---------------------------------|

Gtr. 2
e:---------------------------------|---------------------------------|
B:-0---------------0---------------|-0---------------0---------------|
G:-2b4-------------2b4-------------|-2b4-------------2b4-------------|
D:---------------------------------|---------------------------------|
A:---------------------------------|---------------------------------|
E:---------------------------------|---------------------------------|

This song is a lot of fun to play but writing it down then tabbing it was a drag. 
I play on doing other songs too, like Kill The DJ (the right version)and Angel 
Blue!:)
Tap to rate this tab
# A B C D E F G H I J K L M N O P Q R S T U V W X Y Z