Song name
# A B C D E F G H I J K L M N O P Q R S T U V W X Y Z

Green Day - Stop When The Red Lights Flash tab

Hi peoples ^_^ this is my 2nd tab! This song is awesome by an awesome band!
I'm 99.99% that this is accurate ;)

STANDARD TUNING!!!

INTRO
e|---------------------|
B|---------------------|
G|------7--------------|
D|--7-7-7--7-5-7-------|      12x
A|--7-7-5--7-5-7-------|
E|--5-5----5-3-5-------|


VERSE 1   ***REPEAT 2x***

     "Uncomfortable silence"
e|----------------------|
B|----------8-----------|
G|-7--------7---3x------|
D|-7--14x---5-----------|
A|-5--------------------|
E|----------------------|


     "I'll kill it if you want me to"
e|----------------------------------------|
B|----------------------------------------|
G|--7------------7-------------7----------|
D|--7--16x---7-7-7-7-5-7---7-7-7-7-5-7----|
A|--5--------7-7-5-7-5-7---7-7-5-7-3-7----|
E|-----------5-5---5-3-5---5-5---5-3-5----|




PRE-CHORUS


      "Out of sight, out of mind"
e|-------------------|
B|-------------------|
G|-----9-------------|
D|-----9-------------|    20x
A|-----7-------------|
E|-------------------|

      "I'm not the hurting kind"
e|-------------------|
B|-------------------|
G|-----7-------------|
D|-----7-------------|    20x
A|-----5-------------|
E|-------------------|


CHORUS

     "I'll make you surrender"
e|---------------------|
B|---------------------|
G|------7--------------|    4x
D|--7-7-7-7-5-7--------|
A|--7-7-5-7-5-7--------|
E|--5-5---5-3-5--------|

***AFTER CHORUS REPEAT THE VERSE, THE PRE-CHORUS, AND THE CHORUS!!!!!!***


SOLO! ***THE NOTES ARE CORRECT, JUST FIGURE OUT THE PICKING PATTERN***
Part A
e|------------------------------------------12----------|
B|-10-10-1010-8-7v---10-10-1012-12-12-12-14v----14p12v--|
G|------------------------------------------------------|
D|------------------------------------------------------|
A|------------------------------------------------------|
E|------------------------------------------------------|

Part B
e|-------------------------------------------------------------------|
B|-10-10-1010-8-7v---10-10-1012-12-12-12-14v-14-14-14-14-12br-10-12v-|
G|-------------------------------------------------------------------|
D|-------------------------------------------------------------------|
A|-------------------------------------------------------------------|
E|-------------------------------------------------------------------|


BRIDGE

P.M.************
e|--------------|
B|--------------|
G|-----9--------|
D|-----9--------|  20x (i think this is right)
A|-----7--------|
E|--------------|

    "Out of sight, out of mind"
P.M.************
e|--------------|
B|--------------|
G|-----9--------|
D|-----9--------|   14x
A|-----7--------|
E|--------------|

     "Just give in one more time"
P.M.************
e|--------------|
B|--------------|
G|-----7--------|
D|-----7--------|   14x
A|-----5--------|
E|--------------|


CHORUS AND OUTRO!!!!

     "I'LL MAKE YOU SURRENDER!"
e|---------------------|
B|---------------------|
G|------7--------------|
D|--7-7-7-7-5-7--------|    8x
A|--7-7-5-7-5-7--------|
E|--5-5---5-3-5--------|

End on
e|---------------------|
B|---------------------|
G|-------7-------------|
D|-----7-7-7-----------|
A|-----7-5-7-----------|
E|-----5---5-----------|

That's it!! i hope this helps!:)
If there's any mistakes please feel free to comment!
GREEN DAY IS AWESOME!!!!!!!!!!
Tap to rate this tab
 
# A B C D E F G H I J K L M N O P Q R S T U V W X Y Z