Song name
# A B C D E F G H I J K L M N O P Q R S T U V W X Y Z

Green Day - Stop When The Red Lights Flash tab

Artist: Green Day
Album: ĄDOS!
Song: Stop When The Red Lights Flash
Instrument: Guitar
Submitter: GuitarPunk94

Feel free to rate + comment! Join the GreenDayCommunity(GDC) :-)

Standard Tuning



Key:
-  - Nothing
.  - Palm mute
~  - Let notes ring
12b - Bend string to fret
x  - Mute strings
/ - Slide up or down




 Intro:             Verse 1:
 |12x************|                  |2x*************|
|-----------------------------------------------------|
|-----------------------------------------------------|
|--7----------------7777-12-777777----7---------------|
|7-7-7-xx-7-5-7-xx--7777-12-777777--7-7-7-xx-7-5-7-xx-|
|7-5-7-xx-7-5-7-xx--5555-10-555555--7-5-7-xx-7-5-7-xx-|
|5---5-xx-5-3-5-xx------------------5---5-xx-5-3-5-xx-|

                                     Pre-Chorus:
                  |2x*************|  
|----------------------------------------------|
|----------------------------------------------|
|-7777-12-777777----7----------------9999-7777-|
|-7777-12-777777--7-7-7-xx-7-5-7-xx--9999-7777-|
|-5555-10-555555--7-5-7-xx-7-5-7-xx--7777-5555-|
|-----------------5---5-xx-5-3-5-xx--0000------|

 Chorus:            Verse 2:
 |4x*************|                  |2x*************|
|-----------------------------------------------------|
|-----------------------------------------------------|
|--7----------------7777-12-777777----7---------------|
|7-7-7-xx-7-5-7-xx--7777-12-777777--7-7-7-xx-7-5-7-xx-|
|7-5-7-xx-7-5-7-xx--5555-10-555555--7-5-7-xx-7-5-7-xx-|
|5---5-xx-5-3-5-xx------------------5---5-xx-5-3-5-xx-|

                                     Pre-Chorus:
                  |2x*************|
|----------------------------------------------|
|----------------------------------------------|
|-7777-12-777777----7----------------9999-7777-|
|-7777-12-777777--7-7-7-xx-7-5-7-xx--9999-7777-|
|-5555-10-555555--7-5-7-xx-7-5-7-xx--7777-5555-|
|-----------------5---5-xx-5-3-5-xx--0000------|

 Chorus:            Solo:
 |4x*************|
|-------------------------------------------|
|-------------------10-10-10--10-10--10-10--|
|--7----------------12b12b12b-12b12b-12-11--|
|7-7-7-xx-7-5-7-xx--------------------------|
|7-5-7-xx-7-5-7-xx--------------------------|
|5---5-xx-5-3-5-xx--------------------------|

|--------------------------------------------|
|10-10-10--12-12-12--12-12--14~-17-14--------|
|12b12b12b-14b14b14b-14b14b-16b~-----16-16b\-|
|--------------------------------------------|
|--------------------------------------------|
|--------------------------------------------|

|----------------------------------------------------|
|10-10--10-10-10-10--10-10-10--12-12-12--12-12--14~--|
|12b12b-12b12-12-11--12b12b12b-14b14b14b-14b14b-16b~-|
|----------------------------------------------------|
|----------------------------------------------------|
|----------------------------------------------------|

                               Bridge:
|--------------------------------------------------------|
|14-14-14-14--14-14--------------------------------------|
|16b16-16b16b-16-14-/16~-16~---7/99999-7/99999-777777777-|
|------------------------------7/99999-7/99999-777777777-|
|------------------------------5/77777-5/77777-555555555-|
|--------------------------------------------------------|
                                  ....    ...   ....

 Outro:
  |8x*************|
|---------------------------|
|---------------------------|
|---7------------------7----|
|-7-7-7-xx-7-5-7-xx--7-7-7\-|
|-7-5-7-xx-7-5-7-xx--7-5-7\-|
|-5---5-xx-5-3-5-xx--5---5\-|
Tap to rate this tab
# A B C D E F G H I J K L M N O P Q R S T U V W X Y Z