Song name
# A B C D E F G H I J K L M N O P Q R S T U V W X Y Z

Green Day - Lady Cobra tab

Artist: Green Day
Album: ĄDOS!
Song: Lady Cobra
Instrument: Guitar
Submitter: GuitarPunk94

Feel free to rate + comment! Join the GreenDayCommunity(GDC) :-)

Standard Tuning



Key:
-  - Nothing
~  - Let notes ring
15b- Bend string to fret
x  - Mute strings
/ - Slide up or down




  Intro/Verse 1: Chorus:
       |11x**|   |2x***************|
|------------------------------------------------|
|------------------------------------------------|
|----------------x7x7x---------------------------|
|-9x9x-7-x9x9x-7-x7x7x-x7x7x-x9x9x-7-x4x4x-x7x7x-|
|-9x9x-7-x9x9x-7-x5x5x-x7x7x-x9x9x-7-x4x4x-x7x7x-|
|-7x7x-5-x7x7x-5-------x5x5x-x7x7x-5-x2x2x-x5x5x-|

                      Verse 2:
                      |3x***|
|-----------------------------------------------------|
|-----------------------------------------------------|
|-----------------------------4/6/8/9/11\9\8~---------|
|-x4x4x-x7x7x-8-9--9--7-x9x9x-----------------x9x9x-7-|
|-x4x4x-x7x7x-8-9--9--7-x9x9x-----------------x9x9x-7-|
|-x2x2x-x5x5x-6-7--7--5-x7x7x-----------------x7x7x-5-|

                                  Chorus:
|-------------------------------------------------------------------|
|-------------------------------------------------------------------|
|-4/6/8/9/11\9\8~-x9x9x---------------------------------------------|
|-----------------x9x9x-7-x9x9x-7-x4x4x-x7x7x-x4x4x-x7x7x-8-9--9--7-|
|-----------------x7x7x-7-x9x9x-7-x4x4x-x7x7x-x4x4x-x7x7x-8-9--9--7-|
|-----------------------5-x7x7x-5-x2x2x-x5x5x-x2x2x-x5x5x-6-7--7--5-|

  Solo:
|------------------------------------------------18b-|
|-----------15b-------------------------------17b----|
|-/11~/16~16---14b--14b14b14b14b-17b17b17b1716-------|
|----------------------------------------------------|
|----------------------------------------------------|
|----------------------------------------------------|

  Chorus:
    |2x***************|
|------------------------------------------------------|
|------------------------------------------------------|
|---x7x7x----------------------------------------------|
|-7-x7x7x-x7x7x-x9x9x-7-x4x4x-x7x7x-x4x4x-x7x7x-8-9--9-|
|-7-x5x5x-x7x7x-x9x9x-7-x4x4x-x7x7x-x4x4x-x7x7x-8-9--9-|
|-5-------x5x5x-x7x7x-5-x2x2x-x5x5x-x2x2x-x5x5x-6-7--7-|

  Outro:
  |4x***|
|--------------|
|--------------|
|--------------|
|-7-x9x9x-7-9\-|
|-7-x9x9x-7-9\-|
|-5-x7x7x-5-7\-|
Tap to rate this tab
# A B C D E F G H I J K L M N O P Q R S T U V W X Y Z