Song name
# A B C D E F G H I J K L M N O P Q R S T U V W X Y Z

Green Day - Stray Heart tab

Verse:
part 1
e|--------------------------------------------------------------------------|
B|---9-----------------------------------------------------------9----------|
G|---9-----------------------------------------------------------7----------|
D|---9-----------------------------------------------------------7----------|
A|---7-----------------------------------------------------------7----------|
E|--------------------------------------------------------------------------|
part 2:
e|--------------------------------------------------------------------------|
B|--------------------------------------------------------------------------|
G|------------6-6-6-6---------9-9-9-9---------6-6-6-6-----------------------|
D|----6-6-6-6-6-6-6-6-7-7-9-9-9-9-9-9-6-6-6-6-6-6-6-6-7-7-7-7/9-------------|
A|----6-6-6-6-4-4-4-4-7-7-9-9-7-7-7-7-6-6-6-6-4-4-4-4-7-7-7-7/9-------------|
E|----4-4-4-4---------5-5-7-7---------4-4-4-4---------5-5-5-5/7-------------|

Pré-chorus:
e|--------------------------------------------------------------------------|
B|--------------------------------------------------------------------------|
G|--5-------/7-----/9-------------------------------------------------------|
D|--5--(*12)/7-(*5)/9-------------------------------------------------------|
A|--3-------/5-----/7-------------------------------------------------------|
E|--------------------------------------------------------------------------|

Chorus:

e|--------------------------------------------------------------------------|
B|--------------------------------------------------------------------------|
G|-9------------------------9-----------------------------------------------|
D|-9-(*12)-6-------7--------9-(*12)-6-------7-------------------------------|
A|-7-------6-(*12)-7-(*24)--7-------6-(*12)-7-(*24)-------------------------|
E|---------4-------5----------------4-------5-------------------------------|


Solo:
part 1:
e|----------------------------------------------11b-11b-11b-14b-14b---------|
B|--12b-12b-12b-12b-----------------12b-12b-12b-----------------------------|
G|------------------11b-11b-11b-11b-----------------------------------------|
D|--------------------------------------------------------------------------|
A|--------------------------------------------------------------------------|
E|--------------------------------------------------------------------------|
part 2:
e|--------------7-----------------------------------------------------------|
B|-9-9-9--9-9-9-9--9-9-9--9-9-9-9---------------------------------9-9-9--9-9|
G|-9-9-9--9-9-9-9--8-8-8--8-8-8-8--9-8-6-4-9-9-8-6-4-4/6-6-6-6/8--9-9-9--9-9|
D|--------------------------------------------------------------------------|
A|--------------------------------------------------------------------------|
E|--------------------------------------------------------------------------|

e|--7-----------------------------------------------------------------------|
B|9-9--9-9-9--9-9-9-9--10-10--9-9-9-9---5-5-5-5--7--------------------------|
G|9-9--8-8-8--8-8-8-8--9-9-9--9-9-9-9---7b7b7b7b-9b-------------------------|
D|--------------------------------------------------------------------------|
A|--------------------------------------------------------------------------|
E|--------------------------------------------------------------------------|


-Verse
-pre-chorus
-chorus
-verse
-pre-chorus
-chorus
-solo
-verse without the part 1
-pre-chorus
-chorus (*2) but the chords:(577xxx) the time 4 (*48)




/ :slide up
b :bend
Tap to rate this tab
 
# A B C D E F G H I J K L M N O P Q R S T U V W X Y Z