Song name
# A B C D E F G H I J K L M N O P Q R S T U V W X Y Z

Green Day - Walk Away tab

GREEN DAY
TRE!
WALK AWAY
STANDARD

0:00 INTRO(cleanish)
hard to get right but you will after practice.
e|-333--3-----2---------------2-333---3-----2------------|
B|-333--3-----3---1-----1-----3-333---3-----3---1~-------|
G|-000--0-----2---0-----0-----2-000---0-----2---0~-------|
D|-000--0-----0-0-2-----2---0---000---0-----0-0-2~-------|
A|-222--2---------3-3-3-3-3-----222---2---------3~-------|
E|-333--3-3-3-------------------333-3-3-3-3--------------|



0:08 VERSE
e|-3---3-----2---------------2-333---3-----2-------------2-|     SORRY, I COULD'NT
B|-3---3-----3---1-----1-----3-333---3-----3---1-----1---3-|     FIT IT ALL IN ONE LINE.
G|-0---0-----2---0-----0-----2-000---0-----2---0-----0---2-|
D|-0---0-0---0-0-2-----2---0---000---0-----0-0-2-----2-0---|
A|-2---2---0-----3-3-3-3-3-----222---2---------3-3-3-3-----|
E|-3-3-3-----------------------333-3-3-3-3-----------------|..
|
e|-0~--0---2-------------3---2~---2-------2-----------22---|
B|-0~--0---3---1-----1---3---3~---3-------3-------3-3-33---|
G|-0~--0---2---0-----0---0---2~-2-2-2-2-2-2-2-2-2-2-2-22---|
D|-2~--2-----0-2-----2---0---0~-0-0-0-0-0-0-0-0-0-0-0-00---| X2
A|-2~2-2-2-----3-3-3-3---2-0-------------------------------|
E|---------------------3-3---------------------------------|



0:41 PALM MUTED BIT
e|-------------------------------------------------------------------------------------------------|
B|-------------8-------------------8-----------8---------------------------------------------------|
G|-9-9-9-9-9-9-9-9-5-5-5-5-5-5-5-5-9-9-9-9-9-9-9-9-2-2-2-2-2-2-2-2-5-5-5-5-5-5-5-5-7-7-7-7-7-------|
D|-9-9-9-9-9-9-9-9-5-5-5-5-5-5-5-5-9-9-9-9-9-9-9-9-2-2-2-2-2-2-2-2-5-5-5-5-5-5-5-5-7-7-7-7-7-R-R-R-|
A|-7-7-7-7-7-7-7-7-3-3-3-3-3-3-3-3-7-7-7-7-7-7-7-7-0-0-0-0-0-0-0-0-3-3-3-3-3-3-3-3-5-5-5-5-5-------|
E|-------------------------------------------------------------------------------------------------|
   * * * * * * * * * * * * * * * * * * * * * * * * * * * * * * * * * * * * ' '



0:53 CHORUS (AND NOW 2ND VERSE)
e|------------------------------------------------------------------------|
B|-------------------------------------------------8--8-8-8---------------|
G|----------7~-5~-5-5-5-7~----------7~-5~-5-5-5-7~-9~-9-9-9-7~-5~-5-5-5---|
D|-5~-5-5-5-7~-5~-5-5-5-7~-5~-5-5-5-7~-5~-5-5-5-7~-9~-9-9-9-7~-5~-5-5-5-5~|
A|-5~-5-5-5-5~-3~-3-3-3-5~-5~-5-5-5-5~-3~-3-3-3-5~-7~-7-7-7-5~-3~-3-3-3-5~|
E|-3~-3-3-3----------------3~-3-3-3-------------------------------------3~|

-----------------------------|
-----------------------------|
-7~-7-7-7--7-7-7--7-7-7--7-7-|
-7~-7-7-7--7-7-7--7-7-7--7-7-|
-5~-5-5-5--5-5-5--5-5-5--5-5-|
-----------------------------|


1:09 (2nd PART OF CHORUS)                                       THIS PART PLAY X2 \/
e|-------------------------------------------------------------|---------------------------|
B|-8-8-8-8--8-8-8----------------------------------------------|---------------------------|
G|-9-9-9-9--9-9-9--7-7-7-7--7-7-7------------------5-5-5-5----7|----------7~-5~-5-5-5-7~---|
D|-9-9-9-9--9-9-9--7-7-7-7--7-7-7--5-5-5-5--5-5-5--5-5-5-5----7|-5~-5-5-5-7~-5~-5-5-5-7~---|
A|-7-7-7-7--7-7-7--5-5-5-5--5-5-5--5-5-5-5--5-5-5--3-3-3-3----5|-5~-5-5-5-5~-3~-3-3-3-5~---|
E|---------------------------------3-3-3-3--3-3-3--------------|-3~-3-3-3------------------|




                           1:24, PLAY CHORUS (WHICH IS NOW THE 2ND VERSE) X2


1:54 PRECHORUS
e|-------------------------------------------------------------------------------------------------|
B|-8-8-8-8-8-8-8-8-5-5-5-5-5-5-5-5-8-8-8-8-8-8-8-8-2-2-2-2-2-2-2-2-5-5-5-5-5-5-5-5-7-7-7-7-7-------|
G|-9-9-9-9-9-9-9-9-5-5-5-5-5-5-5-5-9-9-9-9-9-9-9-9-2-2-2-2-2-2-2-2-5-5-5-5-5-5-5-5-7-7-7-7-7-------|
D|-9-9-9-9-9-9-9-9-5-5-5-5-5-5-5-5-9-9-9-9-9-9-9-9-2-2-2-2-2-2-2-2-5-5-5-5-5-5-5-5-7-7-7-7-7-R-R-R-|
A|-7-7-7-7-7-7-7-7-3-3-3-3-3-3-3-3-7-7-7-7-7-7-7-7-0-0-0-0-0-0-0-0-3-3-3-3-3-3-3-3-5-5-5-5-5-------|
E|-------------------------------------------------------------------------------------------------|




            2:07, PLAY CHORUS, THEN 2ND PART OF CHORUS (WITHOUT RESTS IN EACH CHORD PROGRESSION)
                     AND THEN A BIG POWER SLIDE AT THE END OF ALL OF THAT :).. THEN THIS



2:38(SOLO)  PLAY THIS PART X2 \/               X1                              X1
e|--|-----------------------------|-----------------------------|--------------------------------|
B|/9|10--9-10~-10-9\7-7-7-7~-7-7/9|10--9-10~-10-9\7-7-7-7~-7-7/9|9~-9-9-9~-9-9-9~-9-10-9-9-9\7---|
G|/9|9---9-9~~-9--9\7-7-7-7~-7-7/9|7---7-7~~-7--9\7-7-7-7~-7-7/9|9~-9-9-9~-9-9-9~-9-9--9-9-9\7---|
D|--|-----------------------------|-----------------------------|9)(9)9)9)(9)9)9)(9)9)(9)9)9)7)--|
A|--|-----------------------------|-----------------------------|--------------------------------|
E|--|-----------------------------|-----------------------------|--------------------------------|..
|
|
2:54        PLAY THIS PART X2 \/               X1                              X1
e|-------------------------------|-----------------------------|--------------------------------|
B|-------------9\7-7-7-7~-7-7/9--|10--9-10~-10-9\7-7-7-7~-7-7/9|9~-9-9-9~-9-9-9~-9-9-9----\\----|
G|6---6-6~~-6--9\7-7-7-7~-7-7/9--|7---7-7~~-7--9\7-7-7-7~-7-7/9|9~-9-9-9~-9-9-9~-9-9-9----\\----|
D|7---7-7~~-7--------------------|-----------------------------|9)(9)9)9)(9)9)9)(9)9)9)---\\----|
A|-------------------------------|-----------------------------|--------------------------------|
E|-------------------------------|-----------------------------|--------------------------------|
|
|
RHYTHM FOR SOLO (just like chorus but with new key)                                   x2
e|-------------------------------------------------------------------------------|
B|-------------------------------------------------10--10-10-10------------------|
G|----------9~-7~-7-7-7-9~----------9~-7~-7-7-7-9~-11~-11-11-11-9~-7~-7-7-7----9~|
D|-7~-7-7-7-9~-7~-7-7-7-9~-7~-7-7-7-9~-7~-7-7-7-9~-11~-11-11-11-9~-7~-7-7-7-7~-9~|
A|-7~-7-7-7-7~-5~-5-5-5-7~-7~-7-7-7-7~-5~-5-5-5-7~-9~--9--9--9--7~-5~-5-5-5-7~-7~|
E|-5~-5-5-5----------------5~-5-5-5-----------------------------------------5~---|

------------------------|
------------------------|
-9-9-9--9-9-9--9-9-9--9~|
-9-9-9--9-9-9--9-9-9--9~|
-7-7-7--7-7-7--7-7-7--7~|
------------------------|





3:10 AFTER SOLO PRECHORUS (like 2nd part of chorus but with new notes)
e|---------------------------------------------------------------------------|
B|---------------------------------------------------------------------------|
G|-11-11-11-11-11-11-11-11-9-9-9-9-9-9-9-9-----------------7-7-7---7~-9~-----|
D|-11-11-11-11-11-11-11-11-9-9-9-9-9-9-9-9-7-7-7-7-7-7-7-7-7-7-7---7~-9~-----|
A|-9--9--9--9--9--9--9--9--7-7-7-7-7-7-7-7-7-7-7-7-7-7-7-7-5-5-5---5~-7~-----|
E|-----------------------------------------5-5-5-5-5-5-5-5-------------------|
   *  *  *  *  *  *  *  *  * * * * * * * * * * * * * ' ' '      



3:18 OUTRO  X4 \/             END WITH..
e|---------------------------|------------|
B|---------------------------|------------|
G|----------9~-7~-7-7-7-9~---|-7--9--6~---|
D|-7~-7-7-7-9~-7~-7-7-7-9~---|-7--9--7~---|
A|-7~-7-7-7-7~-5~-5-5-5-7~---|-5--7--7~---|
E|-5~-5-5-5------------------|-------5~---|
Tap to rate this tab
# A B C D E F G H I J K L M N O P Q R S T U V W X Y Z