Song name
# A B C D E F G H I J K L M N O P Q R S T U V W X Y Z

Green Day - Dominated Love Slave tab

GREEN DAY
DOMINATED LOVE SLAVE
H A L F  A  S T E P  D O W N 
HALF CHORDS/ HALF TABS.

palm mute - *
harmonic - ^
bend - ((small letter 'be')
Hammer-on - h
let ring - ~
slides - / \ 


Intro w/cricket sounds     I use this strum pattern for nearly the whole song
                            ↓ ↓  ↓ ↑ ↓ ↓  ↓ ↑ ↓ ↓  ↓ ↑ ↓ ↓  ↓ ↑
D#|-----------------------|--------0--------0--------0--------0----|
A#|----------4^4^4^4^-----|---0--0-0---0--0-0---0--0-0---0--0-0----|
F#|---4--4---4^4^4^4^-----|---1--1-1---1--1-1---1--1-1---1--1-1----|
C#|----------4^4^4^4^-----|---2--2-----2--2-----2--2-----2--2------|
G#|-----------------------|-2--------2--------2--------2-----------|
D#|-----------------------|----------0--------0--------0-----------|
                                              E


Verse:

 E                            A
I want to be your dominated love slave
 E                                    B
I want to be the one that takes the pain
 E                              A
You can spank me when I do not behave
 E                 B              E
Smack me in the forehead with a chain


Chorus:

(E)     A            E
Cause I love feelin' dirty
      B             E
And I love feelin' cheap
      A                E
And I love it when you hurt me
   B                  E
So drive them staples deep 



PLAY VERSE AGAIN; (same way)

I want you to slap me and call me naughty
Put a beltsander against my skin
I want to feel pain all over my body
Can't wait to be punished for my sins.


PLAY CHORUS AGAIN; (same way)

Cause I love feelin' dirty
And I love feelin' cheap
And I love it when you hurt me
So drive them staples deep




Rodeo Solo: ( you can see it has notes from the E, A & B chords)
D#|-------------------------3--0-----------------------2~------|
A#|--2b-2b-2b-2b-2b-----2~~------2~~-2b-2b-2b-2b---------------|
F#|--2b-2b-2b-2b-0----2~~-2~~--------2b-2b-2b-2bh4~~-2~----2~--|
C#|------------------------------------------------------------|
G#|------------------------------------------------------------|
D#|------------------------------------------------------------|
|
D#|-------------------------3--0-----------------------5\\12///|
A#|--2b-2b-2b-2b-2b-----2~~------2~~-2b-2b-2b-2b2b-------------|
F#|--2b-2b-2b-2b-0----2~~-2~~--------2b-2b-2b-0-0--0~~---------|
C#|------------------------------------------------------------|
G#|------------------------------------------------------------|
D#|------------------------------------------------------------|




PLAY CHORUS AGAIN; BUT AT END;

"Driveeee............"..... "Staples.?"
D#|----------------------------------------------------|
A#|--4~~~~~~~~~~~~~~~~~~~------------------------------|
F#|--4~~~~~~~~~~~~~~~~~~~-----------------6--7~--------|
C#|--4~~~~~~~~~~~~~~~~~~~-----------------5--6~--------|
G#|--2~~~~~~~~~~~~~~~~~~~~----------------6--7~--------|
D#|----------------------------------------------------|
Tap to rate this tab
 
# A B C D E F G H I J K L M N O P Q R S T U V W X Y Z