Song name
# A B C D E F G H I J K L M N O P Q R S T U V W X Y Z

Green Day - Chump tab

Green Day 
Chump 
Tuning: 1/2 Step Down

Intro
E|-----------------0-0-0-|-----------------0-0-0-|
B|-----------------0-0-0-|-----------------0-0-0-|
G|-4-4-4-x---------1-1-1-|-4-4-4-x---------1-1-1-|
D|-4-4-4-x--6-6-6--2-2-2-|-4-4-4-x--6-6-6--2-2-2-|
A|-2-2-2-x--6-6-6--2-2-2-|-2-2-2-x--6-6-6--2-2-2-|
E|----------4-4-4--0-0-0-|----------4-4-4--0-0-0-|

Verse
E|-----------------0-0-0-|-----------------0-0-0-|-----------------0-0-0-|
B|-----------------0-0-0-|-----------------0-0-0-|-----------------0-0-0-|
G|-4-4-4-x---------1-1-1-|-4-4-4-x---------1-1-1-|-4-4-4-x---------1-1-1-|
D|-4-4-4-x--6-6-6--2-2-2-|-4-4-4-x--6-6-6--2-2-2-|-4-4-4-x--6-6-6--2-2-2-|
A|-2-2-2-x--6-6-6--2-2-2-|-2-2-2-x--6-6-6--2-2-2-|-2-2-2-x--6-6-6--2-2-2-|
E|----------4-4-4--0-0-0-|----------4-4-4--0-0-0-|----------4-4-4--0-0-0-|

E|---------------------|
B|---------------------|
G|---------------------|
D|-4-4-4-4-4-4-4-4-4-4-|
A|-4-4-4-4-4-4-4-4-4-4-|
E|-2-2-2-2-2-2-2-2-2-2-|

Chorus
E|------------------------------------|-------------------------------------|
B|-2-2-2-2-x--------------------------|-2-2-2-2-x-------------------2-2-2-2-|
G|-2-2-2-2-x-1-1-1-1--4-4-4-4-4-4-4-4-|-2-2-2-2-x-1-1-1-1--4-4-4-4--2-2-2-2-|
D|-2-2-2-2-x-2-2-2-2--4-4-4-4-4-4-4-4-|-2-2-2-2-x-2-2-2-2--4-4-4-4--2-2-2-2-|
A|-0-0-0-0-x-2-2-2-2--2-2-2-2-2-2-2-2-|-0-0-0-0-x-2-2-2-2--2-2-2-2--0-0-0-0-|
E|-----------0-0-0-0------------------|-----------0-0-0-0-------------------|

Bridge (Bass riff played throughout)
E|-------------|--------|--------|--------|--------|--------|--------|------|
B|-------------|--------|--------|--------|--------|--------|--------|------|
G|-11~~---11~~-|-9-/-11~|-9-/-11~|-9-/-11~|-9-/-11~|-9-/-11~|-9-/-11~|-9/-11|
D|-11~~---11~~-|-9-/-11~|-9-/-11~|-9-/-11~|-9-/-11~|-9-/-11~|-9-/-11~|-9/-11|
A|--9~~----9~~-|-7-/--9~|-7-/--9~|-7-/--9~|-7-/--9~|-7-/--9~|-7-/--9~|-7-/-9|
E|-------------|--------|--------|--------|--------|--------|--------|------|

E|--------|--------|--------|--------|--------|
B|--------|--------|--------|--------|--------|
G|-9-/-11~|-9-/-11~|-9-/-11~|-9-/-11~|-9-/-11~|
D|-9-/-11~|-9-/-11~|-9-/-11~|-9-/-11~|-9-/-11~|
A|-7-/--9~|-7-/--9~|-7-/--9~|-7-/--9~|-7-/--9~|
E|--------|--------|--------|--------|--------|

Then play this
Outro
E|-------|
B|-------|
G|-9/11~-| about 74 times real fast
D|-9/11~-|
A|-7/-9~-|
E|-------|

Order:

Intro
Verse x2
Chorus
Intro
Verse x2
Chorus
Intro x2
Bridge
Outro
And finally end on a few on these (to fade out into Longview)

E|------|
B|------|
G|--11~-|
D|--11~-|
A|---9~-|
E|------|
Tap to rate this tab
 
# A B C D E F G H I J K L M N O P Q R S T U V W X Y Z