Song name
# A B C D E F G H I J K L M N O P Q R S T U V W X Y Z

Green Day - Stuart And The Ave tab

-------------------------------------------------------------------------------
                         STUART AND THE AVE - Green Day
-------------------------------------------------------------------------------

Tuning: Eb


Intro
e|---------------------------------------------------------------------------|
B|---------------------------------------------------------------------------|
G|-7-----------bass riff---------------------------------7-7-7-7-7-7-7-------|
D|-7-----------------------------------------------------7-7-7-7-7-7-7-------|
A|-5-----------------------------------------------------5-5-5-5-5-5-5-------|
E|---------------------------------------------------------------------------|

e|---------------------------------------------------------------------------|
B|---------------------------------------------------------------------------|
G|-7-------------------------------------------------------------------------|
D|-7--------2--------5--------7----------------------------------------------|
A|-5--------2--------5--------7----------------------------------------------|
E|----------0--------3--------5----------------------------------------------|




Verse
e|---------------------------------------------------------------------------|
B|---------------------------------------------------------------------------|
G|-7--------------------------7--------7-------------------------------------|
D|-7--------2--------5--------7--------7--------2--------5--------7----------| X2
A|-5--------2--------5--------5--------5--------2--------5--------7----------|
E|----------0--------3--------------------------0--------3--------5----------|
 



Chorus
e|---------------------------------------------------------------------------|
B|---------------------------------------------------------------------------|
G|-4-----------------4-----------------7--------------------------7----------|
D|-4--------5--------4--------5--------7--------2--------5--------7----------|
A|-2--------5--------2--------5--------5--------2--------5--------5----------|
E|----------3-----------------3-----------------0--------3-------------------|




Ending
e|---------------------------------------------------------------------------|
B|---------------------------------------------------------------------------|
G|-7-----------------7-----------------7-----------------7-------------------|
D|-7--------7--------7--------7--------7--------7--------7-------------------|
A|-5--------7--------5--------7--------5--------7--------5-------------------|
E|----------5-----------------5-----------------5----------------------------|


************************************

| /   slide up
| \   slide down
| h   hammer-on
| p   pull-off
| ~   vibrato
| +   harmonic
| x   Mute note
| b   Bend
| pb  Pre-bend
| br  Bend release
| pbr Pre-bend release
| brb Bend release bend

************************************
Tap to rate this tab
# A B C D E F G H I J K L M N O P Q R S T U V W X Y Z