Song name
# A B C D E F G H I J K L M N O P Q R S T U V W X Y Z

Green Day - Nightlife chords

Highlighted       Show chord diagrams
Cool song,not really what I'm used to with Green Day,but I liked it anyways.

The main three chords are:

  Em     Bm     Am
|-7--| |-7--| |-5--|
|-8--| |-7--| |-5--|
|-9--| |-7--| |-5--|
|-9--| |-9--| |-7--|
|-7--| |-9--| |-7--|
|-7--| |-7--| |-5--|

Intro:

  Em        Em      Em    Em
Taking a ride to my old haunt

     Bm            Bm       Em        Em  
She's in my blood, I reside in my nightlife

    Em               Em     Em      Em    
My favourite color's candy apple, girl (hahahah)

    Bm          Bm         Em        Em
And she resides in my mind and my nightlife

Verse:no guitar

Chorus:

  Em        Em      Em    Em
Taking a ride to my old haunt

     Bm            Bm       Em        Em  
She's in my blood, I reside in my nightlife

    Em               Em     Em      Em    
My favourite color's candy apple, girl (hahahah)

    Bm          Bm         Em        Em
And she resides in my mind and my nightlife

Verse:no guitar

Bridge:

     Am           Am           Em   Em
Well I am rollin', strollin' into town (come inside)

   Bm    Bm       Em    Em
Is it me or am I going crazy? (it's just you)

     Am         Am      Em    Em
This dirty city is my sugar town (sugar town)

    Bm      Bm           Em        Em
My little angel of death is my nightlife (get me up)

Then comes this:

|--------------------------------------------------------|
|--------------------------------------------------------|
|--------------------------------------------------------|x2
|--------------------------------------------------------|
|--------------------------------------------------------|
|--0-0-3-7--5-3-5--3-0-----2-2-0-2--2-0-2b--2-0-2b-2-0---|

Verse:

|--------------------------------------------------------|
|--------------------------------------------------------|
|--------------------------------------------------------|x2
|--------------------------------------------------------|
|--------------------------------------------------------|
|--0-0-3-7--5-3-5--3-0-----2-2-0-2--2-0-2b--2-0-2b-2-0---|

Chorus:

  Em        Em      Em    Em
Taking a ride to my old haunt

     Bm            Bm       Em        Em  
She's in my blood, I reside in my nightlife

    Em               Em     Em      Em    
My favourite color's candy apple, girl (hahahah)

    Bm          Bm         Em        Em
And she resides in my mind and my nightlife

Outro:no guitar


Hope you like it.
Tap to rate this tab
 
# A B C D E F G H I J K L M N O P Q R S T U V W X Y Z