Song name
# A B C D E F G H I J K L M N O P Q R S T U V W X Y Z

Green Day - Nightlife tab

Song:Nightlife
Album:ˇTré!
Artist:Green Day
Year:2012
Tuning:Standard (E,A,D,G,B,E)


Intro
E-7-X-7-X-7-X-7-X--7-X-7-X-7-X-7-X---7-X-7-X-7-X-7-X--|
B-8-X-8-X-8-X-8-X--7-X-7-X-7-X-7-X---8-X-8-X-8-X-8-X--|
G-9-X-9-X-9-X-9-X--7-X-7-X-7-X-7-X---9-X-9-X-9-X-9-X--|
D-----------------------------------------------------|
A-----------------------------------------------------|
E-----------------------------------------------------|

E-7-X-7-X--7-X-7-X--|
B-7-X-7-X--8-X-8-X--|
G-7-X-7-X--9-X-9-X--|
D-------------------|
A-------------------|
E-------------------|

Verse 1 x2
E-7-X-7-X-7-X-7-X---7-X-7-X--7-X-7-X--|
B-8-X-8-X-8-X-8-X---7-X-7-X--8-X-8-X--|
G-9-X-9-X-9-X-9-X---7-X-7-X--9-X-9-X--|
D-------------------------------------|
A-------------------------------------|
E-------------------------------------|

Chorus 1 x2
E-7-X-7-X-7-X-7-X---7-X-7-X--7-X-7-X--|
B-8-X-8-X-8-X-8-X---7-X-7-X--8-X-8-X--|
G-9-X-9-X-9-X-9-X---7-X-7-X--9-X-9-X--|
D-------------------------------------|
A-------------------------------------|
E-------------------------------------|

Repeat Verse 2 x2

Bridge
E-5-X-5-X--7-X-7-X---7-X-7-X--7-X-7-X--|
B-5-X-5-X--8-X-8-X---7-X-7-X--8-X-8-X--|
G-5-X-5-X--9-X-9-X---7-X-7-X--9-X-9-X--|
D--------------------------------------|
A--------------------------------------|
E--------------------------------------|

E-5-X-5-X--7-X-7-X---7-X-7-X--|
B-5-X-5-X--8-X-8-X---7-X-7-X--|
G-5-X-5-X--9-X-9-X---7-X-7-X--|
D-----------------------------|
A-----------------------------|
E-----------------------------|

SOLO x2
E-------------------------------------------------|
B-------------------------------------------------|
G-------------------------------------------------|
D-------------------------------------------------|
A-------2-2---0-----------------------------------|
E-0-0-3-----3---3-0--2-2-0-2--2-0-2--2-0-2h3p2p0--|

Interlude x2
E-------------------------------------------------|
B-------------------------------------------------|
G-------------------------------------------------|
D-------------------------------------------------|
A-------2-2---0-----------------------------------|
E-0-0-3-----3---3-0--2-2-0-2--2-0-2--2-0-2h3p2p0--|

Chorus 2(Final Chorus)
E-7-X-7-X-7-X-7-X---7-X-7-X--7-X-7-X--|
B-8-X-8-X-8-X-8-X---7-X-7-X--8-X-8-X--|
G-9-X-9-X-9-X-9-X---7-X-7-X--9-X-9-X--|
D-------------------------------------|
A-------------------------------------|
E-------------------------------------|
Tap to rate this tab
# A B C D E F G H I J K L M N O P Q R S T U V W X Y Z