Song name
# A B C D E F G H I J K L M N O P Q R S T U V W X Y Z

Green Day - Fell For You tab

************************************

| /   slide up
| \   slide down
| h   hammer-on
| p   pull-off
| ~   vibrato
| +   harmonic
| .   Palm Mute
| b   Bend
| pb  Pre-bend
| br  Bend release
| pbr Pre-bend release
| brb Bend release bend

************************************


INTRO a x1
e|-------|
B|-------|
G|-9-9---|
D|-9-9---|
A|-7-7---|
E|-------|


INTRO b x2
e|------------------|----------------|-----------------|-----------------|
B|-5---5---5-----5--|--5--5--5-------|-7---7---7-7---7-|-7/9-9---9---9-9-|
G|-7b--7b--7b----7b-|--7b-7b-7b-7b-6-|-7---7---7-7---7-|-7/9-9---9---9-9-|
D|------------------|----------------|-----------------|-----------------|
A|------------------|----------------|-----------------|-----------------|
E|------------------|----------------|-----------------|-----------------|


VERSE x1
"I woke up in a pool of sweat..."
e|-----------------|-----------------|-----------------|-----------------|
B|-----------------|-----------------|-----------------|-----------------|
G|-7-7-7-7-7-7-7-7-|-9-9-9-9-9-9-9-9-|-7-7-7-7-7-7-7-7-|-9-9-9-9-9-9-9-9-|
D|-7-7-7-7-7-7-7-7-|-9-9-9-9-9-9-9-9-|-7-7-7-7-7-7-7-7-|-9-9-9-9-9-9-9-9-|
A|-5-5-5-5-5-5-5-5-|-7-7-7-7-7-7-7-7-|-5-5-5-5-5-5-5-5-|-7-7-7-7-7-7-7-7-|
E|-----------------|-----------------|-----------------|-----------------|

e|-----------------|-----------------|-----------------|-----------------|
B|-----------------|-----------------|-----------------|-----------------|
G|-7-7-7-7-7-7-7-7-|-9-9-9-9-9-9-9-9-|-7-7-7-7-7-7-7-7-|-9-9-9-9-9-------|
D|-7-7-7-7-7-7-7-7-|-9-9-9-9-9-9-9-9-|-7-7-7-7-7-7-7-7-|-9-9-9-9-9-7-7---|
A|-5-5-5-5-5-5-5-5-|-7-7-7-7-7-7-7-7-|-5-5-5-5-5-5-5-5-|-7-7-7-7-7-7-7---|
E|-----------------|-----------------|-----------------|-----------5-5---|


PRE-CHORUS x1
"And I went down like the speed of sound..."
e|-----------------|-----------------|-----------------|-----------------|
B|-----------------|-----------------|-----------------|-----------------|
G|-7-7-7-7-7-7-7-7-|-9-9-9-9-9-------|-7-7-7-7-7-7-7-7-|-9-9-9-9-9-----0-|
D|-7-7-7-7-7-7-7-7-|-9-9-9-9-9-7-7---|-7-7-7-7-7-7-7-7-|-9-9-9-9-9-7-7-0-|
A|-5-5-5-5-5-5-5-5-|-7-7-7-7-7-7-7---|-5-5-5-5-5-5-5-5-|-7-7-7-7-7-7-7-0-|
E|-----------------|-----------5-5---|-----------------|-----------5-5---|

e|-----------------|-----------------|-----------------|-----------------|
B|-----------------|-----------------|-----------------|-----------------|
G|-7-7-7-7-7-7-7-7-|-9-9-9-9-9-------|-7-7-7-7-7-7-7-7-|-9-9-9-9-9-9-9-9-|
D|-7-7-7-7-7-7-7-7-|-9-9-9-9-9-7-7---|-7-7-7-7-7-7-7-7-|-9-9-9-9-9-9-9-9-|
A|-5-5-5-5-5-5-5-5-|-7-7-7-7-7-7-7---|-5-5-5-5-5-5-5-5-|-7-7-7-7-7-7-7-7-|
E|-----------------|-----------5-5---|-----------------|-----------------|

e|-----------------|
B|-----------------|
G|-9-9-9-9-9-9-9-9-|
D|-9-9-9-9-9-9-9-9-|
A|-7-7-7-7-7-7-7-7-|
E|-----------------|


CHORUS x2
"I had a dream that I kissed your lips and it felt so true..."
e|-----------------|-----------------|-----------------|-----------------|
B|-----------------|-----------------|-----------------|-----------------|
G|-----------------|-----------------|-7-7-7-7-7-7-7-7-|-9-9-9-9-9-9-9-9-|
D|-7-7-7-7-7-7-7-7-|-7-7-7-7-7-7-7-7-|-7-7-7-7-7-7-7-7-|-9-9-9-9-9-9-9-9-|
A|-7-7-7-7-7-7-7-7-|-7-7-7-7-7-7-7-7-|-5-5-5-5-5-5-5-5-|-7-7-7-7-7-7-7-7-|
E|-5-5-5-5-5-5-5-5-|-5-5-5-5-5-5-5-5-|-----------------|-----------------|


BRIDGE a x2
"I'll spend the night living in denial..."
e|------------------------------|-------------------------------|
B|------------------------------|-------------3---3---3-3-2-2---|
G|----------------------------0-|-2----2-2----2---2---2-2-2-2-0-|
D|-4----4-4----4-4----4---2---0-|-2--2-2-2--2-2---2---2-2-2-2-0-|
A|-4--4-4-4--4-4-4--4-4-4-2-2-0-|-0--0-0-0--0-0---0---0-0-0-0-0-|
E|-2--2-2-2--2-2-2--2-2-2-0-0---|-------------------------------|


BRIDGE b x1
"I'll crash into you, I crash into you..."
e|-----------------|-----------------|-----------------|-----------------|
B|-----------------|-----------------|-----------------|-----------------|
G|-----------------|-----------------|-----------------|-----------------|
D|-7-7-7-7-7-7-7-7-|-7-7-7-7-7-7-7-7-|-9-9-9-9-9-9-9-9-|-9-9-9-9-9-9-9-9-|
A|-5-5-5-5-5-5-5-5-|-5-5-5-5-5-5-5-5-|-7-7-7-7-7-7-7-7-|-7-7-7-7-7-7-7-7-|
E|-----------------|-----------------|-----------------|-----------------|
   .....................................................................

e|-----------------|-----------------|-----------------|-----------------|
B|-----------------|-----------------|-----------------|-----------------|
G|-----------------|-----------------|-----------------|-----------------|
D|-7-7-7-7-7-7-7-7-|-7-7-7-7-7-7-7-7-|-9-9-9-9-9-9-9-9-|-9-9-9-9-9-7-7---|
A|-5-5-5-5-5-5-5-5-|-5-5-5-5-5-5-5-5-|-7-7-7-7-7-7-7-7-|-7-7-7-7-7-7-7---|
E|-----------------|-----------------|-----------------|-----------5-5---|
   ...............................................................


VERSE x1
"Break a leg and you crush my heart..."
e|-----------------|-----------------|-----------------|-----------------|
B|-----------------|-----------------|-----------------|-----------------|
G|-7-7-7-7-7-7-7-7-|-9-9-9-9-9-9-9-9-|-7-7-7-7-7-7-7-7-|-9-9-9-9-9-9-9-9-|
D|-7-7-7-7-7-7-7-7-|-9-9-9-9-9-9-9-9-|-7-7-7-7-7-7-7-7-|-9-9-9-9-9-9-9-9-|
A|-5-5-5-5-5-5-5-5-|-7-7-7-7-7-7-7-7-|-5-5-5-5-5-5-5-5-|-7-7-7-7-7-7-7-7-|
E|-----------------|-----------------|-----------------|-----------------|

e|-----------------|-----------------|-----------------|-----------------|
B|-----------------|-----------------|-----------------|-----------------|
G|-7-7-7-7-7-7-7-7-|-9-9-9-9-9-9-9-9-|-7-7-7-7-7-7-7-7-|-9-9-9-9-9-----0-|
D|-7-7-7-7-7-7-7-7-|-9-9-9-9-9-9-9-9-|-7-7-7-7-7-7-7-7-|-9-9-9-9-9-7-7-0-|
A|-5-5-5-5-5-5-5-5-|-7-7-7-7-7-7-7-7-|-5-5-5-5-5-5-5-5-|-7-7-7-7-7-7-7-0-|
E|-----------------|-----------------|-----------------|-----------5-5---|


PRE-CHORUS x1
"And I went down like the speed of sound..."
e|-----------------|-----------------|-----------------|-----------------|
B|-----------------|-----------------|-----------------|-----------------|
G|-7-7-7-7-7-7-7-7-|-9-9-9-9-9-------|-7-7-7-7-7-7-7-7-|-9-9-9-9-9-------|
D|-7-7-7-7-7-7-7-7-|-9-9-9-9-9-7-7---|-7-7-7-7-7-7-7-7-|-9-9-9-9-9-7-7---|
A|-5-5-5-5-5-5-5-5-|-7-7-7-7-7-7-7---|-5-5-5-5-5-5-5-5-|-7-7-7-7-7-7-7---|
E|-----------------|-----------5-5---|-----------------|-----------5-5---|

e|-----------------|-----------------|-----------------|-----------------|
B|-----------------|-----------------|-----------------|-----------------|
G|-7-7-7-7-7-7-7-7-|-9-9-9-9-9-------|-7-7-7-7-7-7-7-7-|-9-9-9-9-9-9-9-9-|
D|-7-7-7-7-7-7-7-7-|-9-9-9-9-9-7-7---|-7-7-7-7-7-7-7-7-|-9-9-9-9-9-9-9-9-|
A|-5-5-5-5-5-5-5-5-|-7-7-7-7-7-7-7---|-5-5-5-5-5-5-5-5-|-7-7-7-7-7-7-7-7-|
E|-----------------|-----------5-5---|-----------------|-----------------|

e|-----------------|
B|-----------------|
G|-9-9-9-9-9-9-9-9-|
D|-9-9-9-9-9-9-9-9-|
A|-7-7-7-7-7-7-7-7-|
E|-----------------|


CHORUS x2
"I had a dream that I kissed your lips and it felt so true..."
e|-----------------|-----------------|-----------------|-----------------|
B|-----------------|-----------------|-----------------|-----------------|
G|-----------------|-----------------|-7-7-7-7-7-7-7-7-|-9-9-9-9-9-9-9-9-|
D|-7-7-7-7-7-7-7-7-|-7-7-7-7-7-7-7-7-|-7-7-7-7-7-7-7-7-|-9-9-9-9-9-9-9-9-|
A|-7-7-7-7-7-7-7-7-|-7-7-7-7-7-7-7-7-|-5-5-5-5-5-5-5-5-|-7-7-7-7-7-7-7-7-|
E|-5-5-5-5-5-5-5-5-|-5-5-5-5-5-5-5-5-|-----------------|-----------------|


BRIDGE a x2
"I'll spend the night living in denial..."
e|------------------------------|-------------------------------|
B|------------------------------|-------------3---3---3-3-2-2---|
G|----------------------------0-|-2----2-2----2---2---2-2-2-2-0-|
D|-4----4-4----4-4----4---2---0-|-2--2-2-2--2-2---2---2-2-2-2-0-|
A|-4--4-4-4--4-4-4--4-4-4-2-2-0-|-0--0-0-0--0-0---0---0-0-0-0-0-|
E|-2--2-2-2--2-2-2--2-2-2-0-0---|-------------------------------|


BRIDGE b x2
"I'll crash into you, I crash into you..."
e|-----------------|-----------------|-----------------|-----------------|
B|-----------------|-----------------|-----------------|-----------------|
G|-----------------|-----------------|-----------------|-----------------|
D|-7-7-7-7-7-7-7-7-|-7-7-7-7-7-7-7-7-|-9-9-9-9-9-9-9-9-|-9-9-9-9-9-9-9-9-|
A|-5-5-5-5-5-5-5-5-|-5-5-5-5-5-5-5-5-|-7-7-7-7-7-7-7-7-|-7-7-7-7-7-7-7-7-|
E|-----------------|-----------------|-----------------|-----------------|
   .....................................................................


BREAK x1
"...imagination"
e|-----------------|-----------------|
B|-----------------|-----------------|
G|-9---------------|-----------9-9---|
D|-9---------------|-----------9-9---|
A|-7---------------|-----------7-7---|
E|-----------------|-----------------|


CHORUS x2
"I had a dream that I kissed your lips and it felt so true..."
GUITAR 1
e|-----------------|-----------------|-----------------|-----------------|
B|-----------------|-----------------|-----------------|-----------------|
G|-----------------|-----------------|-7-7-7-7-7-7-7-7-|-9-9-9-9-9-9-9-9-|
D|-7-7-7-7-7-7-7-7-|-7-7-7-7-7-7-7-7-|-7-7-7-7-7-7-7-7-|-9-9-9-9-9-9-9-9-|
A|-7-7-7-7-7-7-7-7-|-7-7-7-7-7-7-7-7-|-5-5-5-5-5-5-5-5-|-7-7-7-7-7-7-7-7-|
E|-5-5-5-5-5-5-5-5-|-5-5-5-5-5-5-5-5-|-----------------|-----------------|

GUITAR 2 (intro b)
e|------------------|----------------|-----------------|-----------------|
B|-5---5---5-----5--|--5--5--5-------|-7---7---7-7---7-|-7/9-9---9---9-9-|
G|-7b--7b--7b----7b-|--7b-7b-7b-7b-6-|-7---7---7-7---7-|-7/9-9---9---9-9-|
D|------------------|----------------|-----------------|-----------------|
A|------------------|----------------|-----------------|-----------------|
E|------------------|----------------|-----------------|-----------------|


OUTRO x1
GUITAR 1
e|-----------------|-----------------|-----------------|-----------------|
B|-----------------|-----------------|-----------------|-----------------|
G|-----------------|-9-9-9-9-9-------|-7-7-7-7-7-7-7-7-|-9-9-9-9-9-9-9-9-|
D|-7-7-7-7-7-7-7-7-|-9-9-9-9-9-7-7---|-7-7-7-7-7-7-7-7-|-9-9-9-9-9-9-9-9-|
A|-7-7-7-7-7-7-7-7-|-7-7-7-7-7-7-7---|-5-5-5-5-5-5-5-5-|-7-7-7-7-7-7-7-7-|
E|-5-5-5-5-5-5-5-5-|-----------5-5---|-----------------|-----------------|

GUITAR 2
e|-----------------|-----------------|-----------------|-----------------|
B|-7---7---7-7---7-|-7/9-9---9-------|-7---7---7-7---7-|-7/9-9---9-------|
G|-7---7---7-7---7-|-7/9-9---9-------|-7---7---7-7---7-|-7/9-9---9-------|
D|-----------------|-----------------|-----------------|-----------------|
A|-----------------|-----------------|-----------------|-----------------|
E|-----------------|-----------------|-----------------|-----------------|


END ON x1
e|-------0---------|-----------------|-----------------|-----------------|
B|-------0---------|-----------------|-----------------|-----------------|
G|-2-----0-----2---|-----------------|-----------------|-----------------|
D|-2-----2-----2---|-----------------|-----------------|-----------------|
A|-0-----2-----0---|-----------------|-----------------|-----------------|
E|-------0---------|-----------------|-----------------|-----------------|
Tap to rate this tab
# A B C D E F G H I J K L M N O P Q R S T U V W X Y Z