Song name
# A B C D E F G H I J K L M N O P Q R S T U V W X Y Z

Green Day - Wild One tab

Intro Lead (Hold the bends)
e|-------------------------------------------------------------------------------------------|
B|-5--5--5--5--5--5--5--5--5--5--5--5---10--10--10--10---6--6--6--6--6--6--6--6--6--6--6--6--|
G|-7b-7b-7b-7b-7b-7b-7b-7b-7b-7b-7b-7b--12b-12b-12b-12b--8b-8b-8b-8b-8b-8b-8b-8b-8b-8b-8b-8b-|
D|-------------------------------------------------------------------------------------------|
A|-------------------------------------------------------------------------------------------|
E|-------------------------------------------------------------------------------------------|

-------------------------------------------------------------------|
-10--10--10--10---7--7--7--7--7--7--7--7---6--6--6--6--6--6--6--6--|
-12b-12b-12b-12b--9b-9b-9b-9b-9b-9b-9b-9b--8b-8b-8b-8b-8b-8b-8b-8b-|
-------------------------------------------------------------------|
-------------------------------------------------------------------|
-------------------------------------------------------------------|

----------------------------------------|
-5--5--5--5--5--5--5--5--5--5--5--5--5--|
-7b-7b-7b-7b-7b-7b-7b-7b-7b-7b-7b-7b-7b-|
----------------------------------------|
----------------------------------------|
----------------------------------------|

Intro Rhythm
e|-----------------------------------------------------------------------------------|
B|-----------------------------------------------------------------------------------|
G|----------------------------------6-6-6-6-6-6-6-6-6-6-6-6-6-6-6-6--7-7-7-7-7-7-7-7-|
D|-7-7-7-7-7-7-7-7-7-7-7-7-7-7-7-7--6-6-6-6-6-6-6-6-6-6-6-6-6-6-6-6--7-7-7-7-7-7-7-7-|
A|-7-7-7-7-7-7-7-7-7-7-7-7-7-7-7-7--4-4-4-4-4-4-4-4-4-4-4-4-4-4-4-4--5-5-5-5-5-5-5-5-|
E|-5-5-5-5-5-5-5-5-5-5-5-5-5-5-5-5---------------------------------------------------|

----------------------------------------------------|
----------------------------------------------------|
-10-10-10-10-10-10-10-10----------------------------|
-10-10-10-10-10-10-10-10--7-7-7-7-7-7-7-7-7-7-7-7-7-|
-8--8--8--8--8--8--8--8---7-7-7-7-7-7-7-7-7-7-7-7-7-|
--------------------------5-5-5-5-5-5-5-5-5-5-5-5-5-|

Verse
e|---------------------------------------------------------|
B|---------------------------------------------------------|
G|-----------------------------6~-x-6-6~-x-6-6~-x-6-6~-x-6-|
D|-7~-x-7-7~-x-7-7~-x-7-7~-x-7-6~-x-6-6~-x-6-6~-x-6-6~-x-6-|
A|-7~-x-7-7~-x-7-7~-x-7-7~-x-7-4~-x-4-4~-x-4-4~-x-4-4~-x-4-|
E|-5~-x-5-5~-x-5-5~-x-5-5~-x-5-----------------------------|

-------------------------------------------------------|
-------------------------------------------------------|
7~-x-7-7~-x-7-10~-x-10-10~-x-10------------------------|
7~-x-7-7~-x-7-10~-x-10-10~-x-10-7~-x-7-7~-x-7-7~-x-7-7-|
5~-x-5-5~-x-5-8-~-x-8--8-~-x-8--7~-x-7-7~-x-7-7~-x-7-7-|
--------------------------------5~-x-5-5~-x-5-5~-x-5-5-|

Pre-Chorus
e|-----------------------------------------------------------------------------------|
B|-----------------------------------------------------------------------------------|
G|----------------------------------6-6-6-6-6-6-6-6-6-6-6-6-6-6-6-6--7-7-7-7-7-7-7-7-|
D|-7-7-7-7-7-7-7-7-7-7-7-7-7-7-7-7--6-6-6-6-6-6-6-6-6-6-6-6-6-6-6-6--7-7-7-7-7-7-7-7-|
A|-7-7-7-7-7-7-7-7-7-7-7-7-7-7-7-7--4-4-4-4-4-4-4-4-4-4-4-4-4-4-4-4--5-5-5-5-5-5-5-5-|
E|-5-5-5-5-5-5-5-5-5-5-5-5-5-5-5-5---------------------------------------------------|

----------------------------------------------------|
----------------------------------------------------|
-10-10-10-10-10-10-10-10----------------------------|
-10-10-10-10-10-10-10-10--7-7-7-7-7-7-7-7-7-7-7-7-7-|
-8--8--8--8--8--8--8--8---7-7-7-7-7-7-7-7-7-7-7-7-7-|
--------------------------5-5-5-5-5-5-5-5-5-5-5-5-5-|

Chorus
e|------------------------------------------------------------------|
B|------------------------------------------------------------------|
G|-7-7-7-7-7-7-7-7-------------------7-7-7-7-7-7-7-7----------------|
D|-7-7-7-7-7-7-7-7--7-7-7-7-7-7-7-7--7-7-7-7-7-7-7-7--7-7-7-7--7--6-|
A|-5-5-5-5-5-5-5-5--7-7-7-7-7-7-7-7--5-5-5-5-5-5-5-5--7-7-7-7--7--6-|
E|------------------5-5-5-5-5-5-5-5-------------------5-5-5-5--5--4-|

--------------------------------------------------------------|
--------------------------------------------------------------|
--------------------------------------------------------------|
-4-4-4-4-4-4-4-4--7-7-7-7-7-7-7-7--5-5-5-5-5-5-5-5--2-2-2-2-2-|
-4-4-4-4-4-4-4-4--7-7-7-7-7-7-7-7--5-5-5-5-5-5-5-5--2-2-2-2-2-|
-2-2-2-2-2-2-2-2--5-5-5-5-5-5-5-5--3-3-3-3-3-3-3-3--0-0-0-0-0-|


Solo Lead
e|-------------------------------------------------------------|
B|----5---------------5----------------------------------------|
G|-4b---4b--4br-2--4b---4b--4br-2-4-2--4-4hb-2------4br-2-4-4b-|
D|---------------------------------------------2hb-------------|
A|-------------------------------------------------------------|
E|-------------------------------------------------------------|
Slide after this part

Hold the bends on this part
e|-----------------------------------------------------------|
B|-5--5--5--5--5--5--5--5--5--5--5--5---14--14--14--14---9---|
G|-7b-7b-7b-7b-7b-7b-7b-7b-7b-7b-7b-7b--16b-16b-16b-16b--11b-|
D|-----------------------------------------------------------|
A|-----------------------------------------------------------|
E|-----------------------------------------------------------|

------------------------------------------------------------------|
-9---9---9---9---9---9---9---9---9---9---9---9----14--14--14--14--|
-11b-11b-11b-11b-11b-11b-11b-11b-11b-11b-11b-11b--16b-16b-16b-16b-|
------------------------------------------------------------------|
------------------------------------------------------------------|
------------------------------------------------------------------|

The one above kind of merges into this
e|---------------------------------------------------------|
B|---------------------------------------------------------|
G|-14-14-14-16-16hb-14--14-16b-14----16b*-16-16rb--14--16b-|
D|--------------------------------16-----------------------|
A|---------------------------------------------------------|
E|---------------------------------------------------------|
Slide after this part

Solo Rhythm
e|---------------------------------------------------------|
B|---------------------------------------------------------|
G|-----------------------------6~-x-6-6~-x-6-6~-x-6-6~-x-6-|
D|-7~-x-7-7~-x-7-7~-x-7-7~-x-7-6~-x-6-6~-x-6-6~-x-6-6~-x-6-|
A|-7~-x-7-7~-x-7-7~-x-7-7~-x-7-4~-x-4-4~-x-4-4~-x-4-4~-x-4-|
E|-5~-x-5-5~-x-5-5~-x-5-5~-x-5-----------------------------|

-------------------------------------------------------|
-------------------------------------------------------|
7~-x-7-7~-x-7-10~-x-10-10~-x-10------------------------|
7~-x-7-7~-x-7-10~-x-10-10~-x-10-7~-x-7-7~-x-7-7~-x-7-7-|
5~-x-5-5~-x-5-8-~-x-8--8-~-x-8--7~-x-7-7~-x-7-7~-x-7-7-|
--------------------------------5~-x-5-5~-x-5-5~-x-5-5-|

e|-----------------------------------------------------------------------------------|
B|-----------------------------------------------------------------------------------|
G|----------------------------------6-6-6-6-6-6-6-6-6-6-6-6-6-6-6-6--7-7-7-7-7-7-7-7-|
D|-7-7-7-7-7-7-7-7-7-7-7-7-7-7-7-7--6-6-6-6-6-6-6-6-6-6-6-6-6-6-6-6--7-7-7-7-7-7-7-7-|
A|-7-7-7-7-7-7-7-7-7-7-7-7-7-7-7-7--4-4-4-4-4-4-4-4-4-4-4-4-4-4-4-4--5-5-5-5-5-5-5-5-|
E|-5-5-5-5-5-5-5-5-5-5-5-5-5-5-5-5---------------------------------------------------|

----------------------------------------------------|
----------------------------------------------------|
-10-10-10-10-10-10-10-10----------------------------|
-10-10-10-10-10-10-10-10--7-7-7-7-7-7-7-7-7-7-7-7-7-|
-8--8--8--8--8--8--8--8---7-7-7-7-7-7-7-7-7-7-7-7-7-|
--------------------------5-5-5-5-5-5-5-5-5-5-5-5-5-|

Outro Lead
e|-------------------------------------------------------------------------------------------|
B|-5--5--5--5--5--5--5--5--5--5--5--5---10--10--10--10---6--6--6--6--6--6--6--6--6--6--6--6--|
G|-7b-7b-7b-7b-7b-7b-7b-7b-7b-7b-7b-7b--12b-12b-12b-12b--8b-8b-8b-8b-8b-8b-8b-8b-8b-8b-8b-8b-|
D|-------------------------------------------------------------------------------------------|
A|-------------------------------------------------------------------------------------------|
E|-------------------------------------------------------------------------------------------|

-------------------------------------------------------------------|
-10--10--10--10---7--7--7--7--7--7--7--7---6--6--6--6--6--6--6--6--|
-12b-12b-12b-12b--9b-9b-9b-9b-9b-9b-9b-9b--8b-8b-8b-8b-8b-8b-8b-8b-|
-------------------------------------------------------------------|
-------------------------------------------------------------------|
-------------------------------------------------------------------|

------------------------------------------------------------------------------------------|
-5--5--5--5--5--5--5--5--5--5--5--5--5---7--7--7--7--7--7--7--7---6--6--6--6--6--6--6--6--|
-7b-7b-7b-7b-7b-7b-7b-7b-7b-7b-7b-7b-7b--9b-9b-9b-9b-9b-9b-9b-9b--8b-8b-8b-8b-8b-8b-8b-8b-|
------------------------------------------------------------------------------------------|
------------------------------------------------------------------------------------------|
------------------------------------------------------------------------------------------|

Outro Rhythm
e|-----------------------------------------------------------------------------------|
B|-----------------------------------------------------------------------------------|
G|----------------------------------6-6-6-6-6-6-6-6-6-6-6-6-6-6-6-6--7-7-7-7-7-7-7-7-|
D|-7-7-7-7-7-7-7-7-7-7-7-7-7-7-7-7--6-6-6-6-6-6-6-6-6-6-6-6-6-6-6-6--7-7-7-7-7-7-7-7-|
A|-7-7-7-7-7-7-7-7-7-7-7-7-7-7-7-7--4-4-4-4-4-4-4-4-4-4-4-4-4-4-4-4--5-5-5-5-5-5-5-5-|
E|-5-5-5-5-5-5-5-5-5-5-5-5-5-5-5-5---------------------------------------------------|

----------------------------------------------------------------------------------------------|
----------------------------------------------------------------------------------------------|
-10-10-10-10-10-10-10-10-----------------------------7-7-7-7-7-7-7-7--10-10-10-10-10-10-10-10-|
-10-10-10-10-10-10-10-10--7-7-7-7-7-7-7-7-7-7-7-7-7--7-7-7-7-7-7-7-7--10-10-10-10-10-10-10-10-|
-8--8--8--8--8--8--8--8---7-7-7-7-7-7-7-7-7-7-7-7-7--5-5-5-5-5-5-5-5--8--8--8--8--8--8--8--8--|
--------------------------5-5-5-5-5-5-5-5-5-5-5-5-5-------------------------------------------|

-----------------|
-----------------|
-----------------|
-7~-x-7-7~-x-7-7-|
-7~-x-7-7~-x-7-7-|
-5~-x-5-5~-x-5-5-|


Order:
Intro
Verse
Pre-Chorus
Chorus
Intro
Verse
Pre-Chorus
Chorus
Intro
Solo
Chorus
Outro

*********************************
| b  = Bend
| br = Bend Release
| hb = Half Bend
| b* = Hold Bend
| ~  = Let Ring
*********************************
Tap to rate this tab
# A B C D E F G H I J K L M N O P Q R S T U V W X Y Z