Song name
# A B C D E F G H I J K L M N O P Q R S T U V W X Y Z

Green Day - Stay The Night tab

-----------------------------------------------------------------------------
                    Stay The Night, by: Green Day
-----------------------------------------------------------------------------
Tabbed by: Ethan Bacon, and Jared Brustman


Tuning: Standard
        clean-          intro: x2 times
e|---------------------------------------------------------|
B|---------------------------------------------------------|
G|-11-11-12-14-14-12-11-11-9-11---11-11-12-14-14-----------|
D|--0--0--0--0--0--0--0--0-0--0----0--0--0--0--0--12-11-11-|
A|-------------------------------------------------0--0--0-|
E|---------------------------------------------------------|
                                                        
e|-------------------------------------------------------------|
B|-------------------------------------------------------------|
G|---------11-11-12-14-14-12----0--0---0-0---------------------|
D|-12-14---0--0---0--0--0--0----12-12-10-9---11-11-12-14-12-11-|
A|--0--0-------------------------------------0--0---0--0--0--0-|
E|-------------------------------------------------------------|
        distortion-     verse: x2 times
e|-----------------------------------------------------------------|
B|-----------------------------------------------------------------|
G|-7--7-7-7-7-7-X----------7--7-X----------------------------------|
D|-7--7-7-7-7-7-X--7--7-X--7--7-X--5--5-5-5-5-5-5/7--7-7-7-7-7-7-X-|
A|-5--5-5-5-5-5-X--7--7-X--5--5-X--5--5-5-5-5-5-5/7--7-7-7-7-7-7-X-|
E|-----------------5--5-X----------3--3-3-3-3-3-3/5--5-5-5-5-5-5-X-|
                        chorus: x4 times
e|----------------------------------------------------------------|
B|----------------------------------------------------------------|
G|-7--7-7-X-X-X-X-X-X-X-X-X-X-X-X---------------------------------|
D|-7--7-7-X-X-X-X-X-X-X-X-X-X-X-X--5--5-5-X-X-X-X--7--7-7-X-X-X-X-|
A|-5--5-5-X-X-X-X-X-X-X-X-X-X-X-X--5--5-5-X-X-X-X--7--7-7-X-X-X-X-|
E|---------------------------------3--3-3-X-X-X-X--5--5-5-X-X-X-X-|
                        chorus 2: x2 times
e|----------------------------------------------------------------|
B|----------------------------------------------------------------|
G|-5--5-5-5-5-5-X-------------------7--7-7-7-7-7-X----------------|
D|-5--5-5-5-5-5-X--5--5-5--5-5-5-X--7--7-7-7-7-7-X--7--7-7--7-7-7-|
A|-3--3-3-3-3-3-X--5--5-5--5-5-5-X--5--5-5-5-5-5-X--7--7-7--7-7-7-|
E|-----------------3--3-3--3-3-3-X------------------5--5-5--5-5-5-|
                        verse 2: x2 times
e|------------------------------------------------------------|
B|------------------------------------------------------------|
G|-11--11-11-11-11-11-X--9--9-X--11--11-X--12--12-12-12-12-12-|
D|--X---X--X--X--X--X-X--X--X-X---X---X-X---X---X--X--X--X--X-|
A|--9---9--9--9--9--9-X--7--7-X---9---9-X--10--10-10-10-10-10-|
E|------------------------------------------------------------|

e|------------------------------------------------------------|
B|------------------------------------------------------------|
G|-12\9--9-X/12--12-X--11--11-11-11-11-11-11\9--9\7--7--7-7-7-|
D|--X\X--X-X/-X---X-X---X---X--X--X--X--X--X\X--X\X--X--X-X-X-|
A|-10\7--7-X/10--10-X---9---9--9--9--9--9--9\7--7\5--5--5-5-5-|
E|------------------------------------------------------------|

e|------------------------|
B|------------------------|
G|-7\6--6-6/7--7-7/9--9-9-|
D|-X\X--X-X/X--X-X/X--X-X-|
A|-5\4--4-4/5--5-5/7--7-7-|
E|------------------------|
                        chorus 3: x4 times
e|----------------------------------------------------------|
B|----------------------------------------------------------|
G|-11-11----11-11----11-11-12-12----12-12----12-12-11-11----|
D|-12-12-12-12-12-12-12-12-12-12-12-12-12-12-12-12-12-12-12-|
A|----------------------------------------------------------|
E|----------------------------------------------------------|

e|-------------------------------------|
B|-------------------------------------|
G|-11-11----11-11-9---9----9---9-----9-|
D|-12-12-12-12-12-11-11-11-11-11-11-11-|
A|-------------------------------------|
E|-------------------------------------|
                        outro:          (let ring)
e|----------------------------------------------------------------|
B|----------------------------------------------------------------|
G|-------------7-7-7-7-7-7-7-7-7-7-7-7-7-7-7-7-7---------------7--|
D|--(intro)----7-7-7-7-7-7-7-7-7-7-7-7-7-7-7-7-7---------------7--|
A|-------------5-5-5-5-5-5-5-5-5-5-5-5-5-5-5-5-5---------------5--|
E|----------------------------------------------------------------|             
                
                order:
        -intro
        -verse
        -chorus
        -chorus 2
        -verse
        -intro (distortion)
        -verse 2
        -chorus 3
        -verse
        -outro
        

************************************

| /   slide up
| \   slide down
| h   hammer-on
| p   pull-off
| ~   vibrato
| +   harmonic
| x   Mute note
| b   Bend
| pb  Pre-bend
| br  Bend release
| pbr Pre-bend release
| brb Bend release bend

*******
Tap to rate this tab
# A B C D E F G H I J K L M N O P Q R S T U V W X Y Z