Song name
# A B C D E F G H I J K L M N O P Q R S T U V W X Y Z

Green Day - Ashley tab

Artist: Green Day
Album: ĄDOS!
Song: Ashley
Submitter: Mazr3y

Please rate and comment. More tabs on the way.



Intro                                                                          x2
e|----------------------------------------------------------------------------|
B|----------------------------------------------------------------------------|
G|-9-9-9-9-9--7-7-7--9-9-9--12-12-12-12---------------12-12-12-12-12-12-12-12-|
D|-9-9-9-9-9--7-7-7--9-9-9--12-12-12-12--12-12-12-12--12-12-12-12-12-12-12-12-|
A|-7-7-7-7-7--5-5-5--7-7-7--10-10-10-10--12-12-12-12--10-10-10-10-10-10-10-10-|
E|---------------------------------------10-10-10-10--------------------------|

Verse 
e|--------------------------------------------------------------------|
B|--------------------------------------------------------------------|
G|--------------------------------------------------------------------|
D|--------------------------------------------------------------------|
A|-----------------------------------5-5-5-5-5-5-5-5--0-0-0-0-0-0-0-0-|
E|-0-0-0-0-0-0-0-0--3-3-3-3-3-3-3-3-----------------------------------|

e|--------------------------------------------------------------------|
B|--------------------------------------------------------------------|
G|--------------------------------------------------------------------|
D|--------------------------------------------------------------------|
A|-----------------------------------5-5-5-5-5-5-5-5--2-2-2-2-2-2-2-2-|
E|-0-0-0-0-0-0-0-0--3-3-3-3-3-3-3-3-----------------------------------|

e|-------------------------------------------------------------------------------------
B|-------------------------------------------------------------------------------------
G|-------------------------------------------------------------------------------------
D|-----------------------------------7-7-7-7-7-7-7-7-----------------------------------
A|-7-7-7-7-7-7-7-7--5-5-5-5-5-5-5-5-------------------7-7-7-7-7-7-7-7--7-7-7-7-7-7-7-7-
E|-------------------------------------------------------------------------------------

--------------------------------------------------|
--------------------------------------------------|
------------------9-9-9-9-9-9-9-9-9-9-9-9-9-9-9-9-|
-7-7-7-7-7-7-7-7--9-9-9-9-9-9-9-9-9-9-9-9-9-9-9-9-|
------------------7-7-7-7-7-7-7-7-7-7-7-7-7-7-7-7-|
--------------------------------------------------|

Pre-Chorus                                                             x3
e|--------------------------------------------------------------------|
B|--------------------------------------------------------------------|
G|-5-5-5-5-5-5-5-5-------------------7-7-7-7-7-7-7-7--9-9-9-9-9-9-9-9-|
D|-5-5-5-5-5-5-5-5--5-5-5-5-5-5-5-5--7-7-7-7-7-7-7-7--9-9-9-9-9-9-9-9-|
A|-3-3-3-3-3-3-3-3--5-5-5-5-5-5-5-5--5-5-5-5-5-5-5-5--7-7-7-7-7-7-7-7-|
E|------------------3-3-3-3-3-3-3-3-----------------------------------|

Play this the fourth time instead of the above
e|-------------------------------------------------------------------|
B|-------------------------------------------------------------------|
G|-5-5-5-5-5-5-5-5-------------------4-4-4-4-4-4-4-4-4-4-4-4-4-4-4-4-|
D|-5-5-5-5-5-5-5-5--5-5-5-5-5-5-5-5--4-4-4-4-4-4-4-4-4-4-4-4-4-4-4-4-|
A|-3-3-3-3-3-3-3-3--5-5-5-5-5-5-5-5--2-2-2-2-2-2-2-2-2-2-2-2-2-2-2-2-|
E|------------------3-3-3-3-3-3-3-3----------------------------------|

Chorus                                                                         x4
e|----------------------------------------------------------------------------|
B|----------------------------------------------------------------------------|
G|-9-9-9-9-9--7-7-7--9-9-9--12-12-12-12---------------12-12-12-12-12-12-12-12-|
D|-9-9-9-9-9--7-7-7--9-9-9--12-12-12-12--12-12-12-12--12-12-12-12-12-12-12-12-|
A|-7-7-7-7-7--5-5-5--7-7-7--10-10-10-10--12-12-12-12--10-10-10-10-10-10-10-10-|
E|---------------------------------------10-10-10-10--------------------------|

Solo Lead                                                x4
e|------------------------------------------------------|
B|-5-5-5-5-5--3-3-3---5-5-5--8-8-8-8---------8-8-8--10b-|
G|-----------------------------------7-7-7-7------------|
D|------------------------------------------------------|
A|------------------------------------------------------|
E|------------------------------------------------------|

Solo Rhythm                                                                    x4
e|----------------------------------------------------------------------------|
B|----------------------------------------------------------------------------|
G|-9-9-9-9-9--7-7-7--9-9-9--12-12-12-12---------------12-12-12-12-12-12-12-12-|
D|-9-9-9-9-9--7-7-7--9-9-9--12-12-12-12--12-12-12-12--12-12-12-12-12-12-12-12-|
A|-7-7-7-7-7--5-5-5--7-7-7--10-10-10-10--12-12-12-12--10-10-10-10-10-10-10-10-|
E|---------------------------------------10-10-10-10--------------------------|

Bridge
e|--------------------------------------------------------------------
B|--------------------------------------------------------------------
G|--------------------------------------------------------------------
D|-5-5-5-5-5-5-5-5--2-2-2-2-2-2-2-2--5-5-5-5-5-5-5-5--2-2-2-2-2-2-2-2-
A|-5-5-5-5-5-5-5-5--2-2-2-2-2-2-2-2--5-5-5-5-5-5-5-5--2-2-2-2-2-2-2-2-
E|-3-3-3-3-3-3-3-3--0-0-0-0-0-0-0-0--3-3-3-3-3-3-3-3--0-0-0-0-0-0-0-0-

--------------------------------------------------|
--------------------------------------------------|
-5-5-5-5-5-5-5-5----------------------------------|
-5-5-5-5-5-5-5-5--5-5-5-5-5-5-5-5-5-5-5-5-5-5-5-5-|
-3-3-3-3-3-3-3-3--5-5-5-5-5-5-5-5-5-5-5-5-5-5-5-5-|
------------------3-3-3-3-3-3-3-3-3-3-3-3-3-3-3-3-|

Outro
e|--------------------|
B|--------------------|
G|--------------------|
D|-2-2--2-2--2-2--2-2-|
A|-2-2--2-2--2-2--2-2-|
E|-0-0--0-0--0-0--0-0-|


Order:
Intro
Verse
Pre-Chorus
Chorus
Solo
Bridge
Verse
Pre-Chorus
Chorus
Outro

*********************************
| b  = Bend
*********************************
Tap to rate this tab
# A B C D E F G H I J K L M N O P Q R S T U V W X Y Z