Song name
# A B C D E F G H I J K L M N O P Q R S T U V W X Y Z

Green Day - Baby Eyes tab

INTRO: 

  B  F#  G        E  G   C    
|-----------------------------------------|
|-----------------------------------------|
|-44---------------------5-55555-4b-4~----|x2
|-44-444-5-55555--22-555-5-55555----------|
|-22-444-5-55555--22-555-3-33333----------|
|----222-3-33333--00-333------------------|

VERSE 1:   x2

  B        E        B                E        F#       B
|---------------------------------------------------------------------|
|---------------------------------------------------------------------|
|-4-4-4-4--9-9-9-9--4-4-4-4-4-4-4-4--------------------4-4-4-4-4-4-4-4|
|-4-4-4-4--9-9-9-9--4-4-4-4-4-4-4-4--2-2-2-2--4-4-4-4--4-4-4-4-4-4-4-4|
|-2-2-2-2--7-7-7-7--2-2-2-2-2-2-2-2--2-2-2-2--4-4-4-4--2-2-2-2-2-2-2-2|
|------------------------------------0-0-0-0--2-2-2-2-----------------|

CHORUS:

   E    F#   B    E     E    F#   B
|--------------------------------------------|
|--------------------------------------------|
|------------4444-----------------44444444---|
|--2222-4444-4444-2222--2222-4444-44444444---|
|--2222-4444-2222-2222--2222-4444-22222222---|
|--0000-2222------0000--0000-2222------------|

   E    F#   G#   C#        E    F#
|--------------------------------------------|
|--------------------------------------------|
|-----------------66666666-------------------|
|--2222-4444-6666-66666666--2222-4444#-------|
|--2222-4444-6666-44444444--2222-4444#-------|
|--0000-2222-4444-----------0000-2222#-------|

INTERLUDE: 

    B   F#    G               E   G     C    
|-----------------------------------------|
|-----------------------------------------|
|-44---------------------5-55555-4b-4~----|x2
|-44-444-5-55555--22-555-5-55555----------|
|-22-444-5-55555--22-555-3-33333----------|
|----222-3-33333--00-333------------------|

VERSE 2:   x2

  B        E        B                E        F#       B
|---------------------------------------------------------------------|
|---------------------------------------------------------------------|
|-4-4-4-4--9-9-9-9--4-4-4-4-4-4-4-4--------------------4-4-4-4-4-4-4-4|
|-4-4-4-4--9-9-9-9--4-4-4-4-4-4-4-4--2-2-2-2--4-4-4-4--4-4-4-4-4-4-4-4|
|-2-2-2-2--7-7-7-7--2-2-2-2-2-2-2-2--2-2-2-2--4-4-4-4--2-2-2-2-2-2-2-2|
|------------------------------------0-0-0-0--2-2-2-2-----------------|

CHORUS:

   E    F#   B    E     E    F#   B
|--------------------------------------------|
|--------------------------------------------|
|------------4444-----------------44444444---|
|--2222-4444-4444-2222--2222-4444-44444444---|
|--2222-4444-2222-2222--2222-4444-22222222---|
|--0000-2222------0000--0000-2222------------|

   E    F#   G#   C#        
|--------------------------------------------|
|--------------------------------------------|
|-----------------66666666-------------------|
|--2222-4444-6666-66666666-------------------|
|--2222-4444-6666-44444444-------------------|
|--0000-2222-4444----------------------------|

    E    F#   E    F#   E    F#
|------------------------------------|
|------------------------------------|
|------------------------------------|
|---2222-4444-2222-4444-2222-4~~-----|
|---2222-4444-2222-4444-2222-4~~-----|
|---0000-2222-0000-2222-0000-2~~-----|

END:

    B   F#    G               E   G     C                                      B
|-------------------------------------(x4)--|------|
|-------------------------------------------|------|
|-44---------------------5-55555-4b-4~------|-4\---|
|-44-444-5-55555--22-555-5-55555------------|-4\---|
|-22-444-5-55555--22-555-3-33333------------|-2\---|
|----222-3-33333--00-333--------------------|------|
Tap to rate this tab
 
# A B C D E F G H I J K L M N O P Q R S T U V W X Y Z