Song name
# A B C D E F G H I J K L M N O P Q R S T U V W X Y Z

Green Day - Missing You tab

Artist: Green Day
Album: ˇTRÉ!
Song: Missing You
Submitter: Mazr3y

Please Rate and comment. More tabs to come.


Intro                       x2
e|-------------------------|
B|-------------------------|
G|----9--7~---11--7--9-----|
D|-7--9--7~---11--7--9--7~-|
A|-7--7--5~---9---5--7--7~-|
E|-5--------------------5~-|

Verse
e|------------------------------------------------------------------|
B|------------------------------------------------------------------|
G|----------------------------------6-6-6-6-6-6-6-6-6-6-6-6-6-6-6-6-|
D|-7-7-7-7-7-7-7-7-7-7-7-7-7-7-7-7--6-6-6-6-6-6-6-6-6-6-6-6-6-6-6-6-|
A|-7-7-7-7-7-7-7-7-7-7-7-7-7-7-7-7--4-4-4-4-4-4-4-4-4-4-4-4-4-4-4-4-|
E|-5-5-5-5-5-5-5-5-5-5-5-5-5-5-5-5----------------------------------|
     * * * * * * * * * * * * * * *  * * * * * * * * * * * * * * * *

------------------------------------------------------------------------------------|
------------------------------------------------------------------------------------|
-7-7-7-7-7-7-7-7-7-7-7-7-7-7-7-7--------------------------------------------------6-|
-7-7-7-7-7-7-7-7-7-7-7-7-7-7-7-7--7-7-7-7-7-7-7-7-7-7-7-7-7-7-7-7---7-7~--7-7-7-7-6-|
-5-5-5-5-5-5-5-5-5-5-5-5-5-5-5-5--7-7-7-7-7-7-7-7-7-7-7-7-7-7-7-7---7-7~--7-7-7-7-4-|
----------------------------------5-5-5-5-5-5-5-5-5-5-5-5-5-5-5-5---5-5~--5-5-5-5---|
 * * * * * * * * * * * * * * * *  * * * * * * * * * * * * * * * *

------------------------------------------------------------------------------------------|
------------------------------------------------------------------------------------------|
-6-6-6-6-6-6-6-6-6-6-6-6-6-6-6--7-7-7-7-7-7-7-7--9-9-9-9-9-9-9-9--------------------------|
-6-6-6-6-6-6-6-6-6-6-6-6-6-6-6--7-7-7-7-7-7-7-7--9-9-9-9-9-9-9-9--7-7-7-7-7-7-7-7-7-7-7-7-|
-4-4-4-4-4-4-4-4-4-4-4-4-4-4-4--5-5-5-5-5-5-5-5--7-7-7-7-7-7-7-7--7-7-7-7-7-7-7-7-7-7-7-7-|
------------------------------------------------------------------5-5-5-5-5-5-5-5-5-5-5-5-|
 * * * * * * * * * * * * * * *  * * * * * * * *  * * * * * * * *  * * * * * * * * * * * *

Pre-Chorus                         x3
e|--------------------------------|
B|--------------------------------|
G|-7-7-7-----------9-9-9----------|
D|-7-7-7--7-7-7-7--9-9-9--7-7-7-7-|
A|-5-5-5--7-7-7-7--7-7-7--7-7-7-7-|
E|--------5-5-5-5---------5-5-5-5-|

e|----------------------------------|
B|----------------------------------|
G|-7-7-7-7-7-7-7-7--9-9-9-9-9-9-9-9-|
D|-7-7-7-7-7-7-7-7--9-9-9-9-9-9-9-9-|
A|-5-5-5-5-5-5-5-5--7-7-7-7-7-7-7-7-|
E|----------------------------------|

Chorus
e|------------------------------------------------------------------|
B|------------------------------------------------------------------|
G|-----------------9--9-9-9-9-9-9--7--7-7-7-7-7-7-7-7-7-7-7-7-7-7-7-|
D|-7--7-7-7-7-7-7--9--9-9-9-9-9-9--7--7-7-7-7-7-7-7-7-7-7-7-7-7-7-7-|
A|-7--7-7-7-7-7-7--7--7-7-7-7-7-7--5--5-5-5-5-5-5-5-5-5-5-5-5-5-5-5-|
E|-5--5-5-5-5-5-5---------------------------------------------------|
                                                                        x2
-----------------------------------------------------------------------|
-----------------------------------------------------------------------|
-----------------6--6-6-6-6-6-6--7--7-7-7-7-7-7-7-7-7-7-7-7-7-7-7--9-9-|
-7--7-7-7-7-7-7--6--6-6-6-6-6-6--7--7-7-7-7-7-7-7-7-7-7-7-7-7-7-7--9-9-|
-7--7-7-7-7-7-7--4--4-4-4-4-4-4--5--5-5-5-5-5-5-5-5-5-5-5-5-5-5-5--7-7-|
-5--5-5-5-5-5-5--------------------------------------------------------|

Solo Lead
e|-----------------------------------------------|
B|-5--5--5-5-5-5-5-5-5-5--7--7--5--5-5-5-5-5-5-5-|
G|-7b-7b-7-7-7-7-7-7-7-7--9b-9b-7b-6-6-6-6-6-6-6-|
D|-----------------------------------------------|
A|-----------------------------------------------|
E|-----------------------------------------------|

---------------------------------12-12-12-12-12-12-12-|
-5--5--5-5-5-5-5-5-5-5--7--7--5--14-14-14-14-14-14-14-|
-7b-7b-7-7-7-7-7-7-7-7--9b-9b-7b----------------------|
------------------------------------------------------|
------------------------------------------------------|
------------------------------------------------------|

Solo Rhythm                 x2
e|-------------------------|
B|-------------------------|
G|----9--7~---11--7--9-----|
D|-7--9--7~---11--7--9--7~-|
A|-7--7--5~---9---5--7--7~-|
E|-5--------------------5~-|

Bridge                                     x4
e|----------------------------------------|
B|----------------------------------------|
G|----9--7--7-7-7------11--7--9-----------|
D|-7--9--7--7-7-7------11--7--9--7--7-7-7-|
A|-7--7--5--5-5-5------9---5--7--7--7-7-7-|
E|-5-----------------------------5--5-5-5-|
(Stop these notes right after playing them)


Order:
Intro
Verse
Pre-Chorus
Chorus
Verse
Pre-Chorus
Chorus
Solo
Bridge
Intro
Chorus
Intro

*********************************
| ~  = Let Ring
| *  = Palm Mute
| b  = Bend
*********************************
Tap to rate this tab
# A B C D E F G H I J K L M N O P Q R S T U V W X Y Z