Song name
# A B C D E F G H I J K L M N O P Q R S T U V W X Y Z

Green Day - Troublemaker tab

I'm pretty sure this is 100% correct, but it's my first tab. Watch my lesson here:
http://youtu.be/wMURVtY8wMY

Tabbed By: Cameron Manis/TheGreenBlink41
E-mail: cameronmanis@hotmail.com
YouTube: TheGreenBlink41

Intro:
e-----x---x--------------------------------------------|
B-----x---x--------------------------------------------|
G-----x---x--------------------------------------------|
D-----x---x--------------------------------------------|
A-----x---x--------------------------------------------|
E-----x---x--------------------------------------------|

Verse:
e--------------------------------------------------------|
B--------------------------------------------------------|
G-------------------8--9--9--------7---------------------|
D----7--7--8--9--9--8--9--9--6--7--7---------------------|
A----7--7--8--9--9--6--7--7--6--7--5---------------------|
E----5--5--6--7--7-----------4--5------------------------|

Chorus:
e----------------------------------------------------|
B----------------------------------------------------|
G----------------------------------------------------|
D----7--7--4~----------------------------------------|
A----7--7--4~----------------------------------------|
E----5--5--2~----------------------------------------|

Solo:
e------------------------------------------------------------|
B------------------------------------------------------------|
G--3/8--9-11--13-14-14b\8------------------------------------|
D------------------------------------------------------------|
A------------------------------------------------------------|
E------------------------------------------------------------|

e------------------------------------------------------------|
B-----------------------14-17b-17b-17b-----------------------|
G--16-14----14-16--------------------------------------------|
D--------16--------------------------------------------------|
A------------------------------------------------------------|
E------------------------------------------------------------|

e------------------------------------------------------------|
B-17b-17-14-----------------------14-17-14-------------------|
G-----------------16-14-----14-16-------------16-14----------|
D------------------------16----------------------------------|
A------------------------------------------------------------|
E------------------------------------------------------------|

e-----------------------------------------------------------|
B-17-13-14-17-13-14-17-13-14-17-13-14-13-13b----------------|
G----------------------------------------14b----------------|
D-----------------------------------------------------------|
A-----------------------------------------------------------|
E-----------------------------------------------------------|

Bridge:
e--------------x-----------------------------------|
B--------------x-----------------------------------|
G--------------x-----------------------------------|
D---7--7--8--9-x-----------------------------------|
A---7--7--8--9-x-----------------------------------|
E---5--5--6--7-x-----------------------------------| (x3)

e------------------------------------------------|
B------------------------------------------------|
G------------------------------------------------|
D---7--7--8--9---------9-------------------------|
A---7--7--8--9---------9-------------------------|
E---5--5--6--7---------7-------------------------|

And there you go. If this wasn't clear, my video should be very helpful to you. Let me 
know if you have any suggestions.
Tap to rate this tab
 
# A B C D E F G H I J K L M N O P Q R S T U V W X Y Z