Song name
# A B C D E F G H I J K L M N O P Q R S T U V W X Y Z

Green Day - Lazy Bones tab

Artist: Green Day
Album: ĄDOS!
Song: Lazy Bones
Submitter: Mazr3y

Please rate and comment.
NOTE: This song has a lot of parts and is kind of hard to follow.
I would recommend using the order of the song which can be found at the bottom of the page.


Verse 1                                            x3
e|-9--9--9--9--9--9--9--9--9--9--9--9--9--9--9--9--|
B|-10-10-10-10-10-10-10-10-10-10-10-10-10-10-10-10-|
G|-11-11-11-11-11-11-11-11-11-11-11-11-11-11-11-11-|
D|-11-11-11-11-11-11-11-11-11-11-11-11-11-11-11-11-|
A|-9--9--9--9--9--9--9--9--9--9--9--9--9--9--9--9--|
E|-------------------------------------------------|

-------------------------------------------------|
-14-14-14-14-14-14-14-14-14-14-14-14-14-14-14-14-|
-14-14-14-14-14-14-14-14-14-14-14-14-14-14-14-14-|
-14-14-14-14-14-14-14-14-14-14-14-14-14-14-14-14-|
-12-12-12-12-12-12-12-12-12-12-12-12-12-12-12-12-|
-------------------------------------------------|

------------------------------------------------------------------|
-7-7-7-7-7-7-7-7-7-7-7-7-7-7-7-7--9-9-9-9-9-9-9-9-9-9-9-9-9-9-9-9-|
-7-7-7-7-7-7-7-7-7-7-7-7-7-7-7-7--9-9-9-9-9-9-9-9-9-9-9-9-9-9-9-9-|
-9-9-9-9-9-9-9-9-9-9-9-9-9-9-9-9--9-9-9-9-9-9-9-9-9-9-9-9-9-9-9-9-|
-9-9-9-9-9-9-9-9-9-9-9-9-9-9-9-9--7-7-7-7-7-7-7-7-7-7-7-7-7-7-7-7-|
-7-7-7-7-7-7-7-7-7-7-7-7-7-7-7-7----------------------------------|

Pre-Chorus                                                           x2
e|------------------------------------------------------------------|
B|------------------------------------------------------------------|
G|------------------------------------------------------------------|
D|-7-7-7-7-7-7-7-7-7-7-7-7-7-7-7-7--4-4-4-4-4-4-4-4-4-4-4-4-4-4-4-4-|
A|-7-7-7-7-7-7-7-7-7-7-7-7-7-7-7-7--4-4-4-4-4-4-4-4-4-4-4-4-4-4-4-4-|
E|-5-5-5-5-5-5-5-5-5-5-5-5-5-5-5-5--2-2-2-2-2-2-2-2-2-2-2-2-2-2-2-2-|

Chorus
e|------------------------------------------------------------------|
B|------------------------------------------------------------------|
G|-7-x-7-7-7--9-x-9-9-9--6-x-6-6-6-------------7-x-7-7-7--9-x-9-9-9-|
D|-7-x-7-7-7--9-x-9-9-9--6-x-6-6-6--4-x-4-4-4--7-x-7-7-7--9-x-9-9-9-|
A|-5-x-5-5-5--7-x-7-7-7--4-x-4-4-4--4-x-4-4-4--5-x-5-5-5--7-x-7-7-7-|
E|----------------------------------2-x-2-2-2-----------------------|

---------------------------------|
---------------------------------|
---------------------------------|
-7-7-7-7-7-7-7-7-7-7-7-7-7-7-7-7-|
-7-7-7-7-7-7-7-7-7-7-7-7-7-7-7-7-|
-5-5-5-5-5-5-5-5-5-5-5-5-5-5-5-5-|

------------------------------------------------------------------|
------------------------------------------------------------------|
-7-x-7-7-7--9-x-9-9-9--6-x-6-6-6-------------7-x-7-7-7--9-x-9-9-9-|
-7-x-7-7-7--9-x-9-9-9--6-x-6-6-6--4-x-4-4-4--7-x-7-7-7--9-x-9-9-9-|
-5-x-5-5-5--7-x-7-7-7--4-x-4-4-4--4-x-4-4-4--5-x-5-5-5--7-x-7-7-7-|
----------------------------------2-x-2-2-2-----------------------|

Interlude 1
e|------------------------------------------------------------------|
B|------------------------------------------------------------------|
G|------------------------------------------------------------------|
D|-4-4-4-4-4-4-4-4-4-4-4-4-4-4-4-4--7-7-7-7-7-7-7-7-7-7-7-7-7-7-7-7-|
A|-4-4-4-4-4-4-4-4-4-4-4-4-4-4-4-4--7-7-7-7-7-7-7-7-7-7-7-7-7-7-7-7-|
E|-2-2-2-2-2-2-2-2-2-2-2-2-2-2-2-2--5-5-5-5-5-5-5-5-5-5-5-5-5-5-5-5-|

------------------------------------------------------------------|
------------------------------------------------------------------|
----------------------------------9-9-9-9-9-9-9-9-9-9-9-9-9-9-9-9-|
-9-9-9-9-9-9-9-9-9-9-9-9-9-9-9-9--9-9-9-9-9-9-9-9-9-9-9-9-9-9-9-9-|
-9-9-9-9-9-9-9-9-9-9-9-9-9-9-9-9--7-7-7-7-7-7-7-7-7-7-7-7-7-7-7-7-|
-7-7-7-7-7-7-7-7-7-7-7-7-7-7-7-7----------------------------------|

Verse 2 Rhythm                                                                        x2
e|-9--9---9----9--9---9--------------------------------------------------------------|
B|-10-10--10---10-10--10---14-14--14---14-14--14---7-7--7---7-7--7---9-9--9---9-9--9-|
G|-11-11--11---11-11--11---14-14--14---14-14--14---7-7--7---7-7--7---9-9--9---9-9--9-|
D|-11-11--11---11-11--11---14-14--14---14-14--14---9-9--9---9-9--9---9-9--9---9-9--9-|
A|-9--9---9----9--9---9----12-12--12---12-12--12---9-9--9---9-9--9---7-7--7---7-7--7-|
E|-------------------------------------------------7-7--7---7-7--7-------------------|

Verse 2 Lead (play this second time for lead instead of doing above twice)
e|-2~-2------5~--------7~--------------7------------|
B|-2~---2----5~--------7~--------------7~-9-9-9-9-9-|
G|-2~-----2--6~---6----8~-------7------9~-9-9-9-9-9-|
D|-4~--------7~-----7--9~--------------9~-9-9-9-9-9-|
A|-4~--------7~-7------9~-7-9-7---9-7--7~-7-7-7-7-7-|
E|-2~--------5~--------7~--------------7------------|

Interlude 2 Rhythm                                 x2
e|-9--9--9--9--9--9--9--9--9--9--9--9--9--9--9--9--|
B|-10-10-10-10-10-10-10-10-10-10-10-10-10-10-10-10-|
G|-11-11-11-11-11-11-11-11-11-11-11-11-11-11-11-11-|
D|-11-11-11-11-11-11-11-11-11-11-11-11-11-11-11-11-|
A|-9--9--9--9--9--9--9--9--9--9--9--9--9--9--9--9--|
E|-------------------------------------------------|

-------------------------------------------------|
-14-14-14-14-14-14-14-14-14-14-14-14-14-14-14-14-|
-14-14-14-14-14-14-14-14-14-14-14-14-14-14-14-14-|
-14-14-14-14-14-14-14-14-14-14-14-14-14-14-14-14-|
-12-12-12-12-12-12-12-12-12-12-12-12-12-12-12-12-|
-------------------------------------------------|

------------------------------------------------------------------|
-7-7-7-7-7-7-7-7-7-7-7-7-7-7-7-7--9-9-9-9-9-9-9-9-9-9-9-9-9-9-9-9-|
-7-7-7-7-7-7-7-7-7-7-7-7-7-7-7-7--9-9-9-9-9-9-9-9-9-9-9-9-9-9-9-9-|
-9-9-9-9-9-9-9-9-9-9-9-9-9-9-9-9--9-9-9-9-9-9-9-9-9-9-9-9-9-9-9-9-|
-9-9-9-9-9-9-9-9-9-9-9-9-9-9-9-9--7-7-7-7-7-7-7-7-7-7-7-7-7-7-7-7-|
-7-7-7-7-7-7-7-7-7-7-7-7-7-7-7-7----------------------------------|

Interlude 2 Lead (play this second time for lead instead of doing above twice)
e|-2~-2------5~--------7~--------------7------------|
B|-2~---2----5~--------7~--------------7~-9-9-9-9-9-|
G|-2~-----2--6~---6----8~-------7------9~-9-9-9-9-9-|
D|-4~--------7~-----7--9~--------------9~-9-9-9-9-9-|
A|-4~--------7~-7------9~-7-9-7---9-7--7~-7-7-7-7-7-|
E|-2~--------5~--------7~--------------7------------|

Solo Lead (hold all bends)
e|--------------------------------------------------|
B|-5--5--5--5--5--5--5--5--5--5--5--5---7--7--7--7--|
G|-7b-7b-7b-7b-7b-7b-7b-7b-7b-7b-7b-7b--9b-9b-9b-9b-|
D|--------------------------------------------------|
A|--------------------------------------------------|
E|--------------------------------------------------|

--------------------------------------------------------------------------------------|
-2--2--2--2--2--2--2--2--2--2--2--2--2--2--2--2---5--5--5--5--5--5--5--5--5--5--5--5--|
-4b-4b-4b-4b-4b-4b-4b-4b-4b-4b-4b-4b-4b-4b-4b-4b--7b-7b-7b-7b-7b-7b-7b-7b-7b-7b-7b-7b-|
--------------------------------------------------------------------------------------|
--------------------------------------------------------------------------------------|
--------------------------------------------------------------------------------------|

------------------------------------------------------------------|
-10--10--10--10---7--7--7--7--7--7--7--7--7--7--7--7--7--7--7--7--|
-12b-12b-12b-12b--9b-9b-9b-9b-9b-9b-9b-9b-9b-9b-9b-9b-9b-9b-9b-9b-|
------------------------------------------------------------------|
------------------------------------------------------------------|
------------------------------------------------------------------|

Solo Rhythm                                                          x2
e|------------------------------------------------------------------|
B|------------------------------------------------------------------|
G|------------------------------------------------------------------|
D|-7-7-7-7-7-7-7-7-7-7-7-7-7-7-7-7--4-4-4-4-4-4-4-4-4-4-4-4-4-4-4-4-|
A|-7-7-7-7-7-7-7-7-7-7-7-7-7-7-7-7--4-4-4-4-4-4-4-4-4-4-4-4-4-4-4-4-|
E|-5-5-5-5-5-5-5-5-5-5-5-5-5-5-5-5--2-2-2-2-2-2-2-2-2-2-2-2-2-2-2-2-|

Interlude 3
e|--------------------------------------------------------|
B|--------------------------------------------------------|
G|-6-6-6-6-6-6-6-6-------------------7-x-7-7-7--9-x-9-9-9-|
D|-6-6-6-6-6-6-6-6--4-4-4-4-4-4-4-4--7-x-7-7-7--9-x-9-9-9-|
A|-4-4-4-4-4-4-4-4--4-4-4-4-4-4-4-4--5-x-5-5-5--7-x-7-7-7-|
E|------------------2-2-2-2-2-2-2-2-----------------------|

Outro
e|-9--9--9--9--9--9--9--9--9--9--9--9--9--9--9--9--|
B|-10-10-10-10-10-10-10-10-10-10-10-10-10-10-10-10-|
G|-11-11-11-11-11-11-11-11-11-11-11-11-11-11-11-11-|
D|-11-11-11-11-11-11-11-11-11-11-11-11-11-11-11-11-|
A|-9--9--9--9--9--9--9--9--9--9--9--9--9--9--9--9--|
E|-------------------------------------------------|

-------------------------------------------------|
-14-14-14-14-14-14-14-14-14-14-14-14-14-14-14-14-|
-14-14-14-14-14-14-14-14-14-14-14-14-14-14-14-14-|
-14-14-14-14-14-14-14-14-14-14-14-14-14-14-14-14-|
-12-12-12-12-12-12-12-12-12-12-12-12-12-12-12-12-|
-------------------------------------------------|

-------------------------------------------------------------------9--|
-7-7-7-7-7-7-7-7-7-7-7-7-7-7-7-7--9-9-9-9-9-9-9-9-9-9-9-9-9-9-9-9--10-|
-7-7-7-7-7-7-7-7-7-7-7-7-7-7-7-7--9-9-9-9-9-9-9-9-9-9-9-9-9-9-9-9--11-|
-9-9-9-9-9-9-9-9-9-9-9-9-9-9-9-9--9-9-9-9-9-9-9-9-9-9-9-9-9-9-9-9--11-|
-9-9-9-9-9-9-9-9-9-9-9-9-9-9-9-9--7-7-7-7-7-7-7-7-7-7-7-7-7-7-7-7--9--|
-7-7-7-7-7-7-7-7-7-7-7-7-7-7-7-7--------------------------------------|


Order:
Verse 1
Pre-Chorus
Chorus
Interlude 1
Verse 2
Pre-Chorus
Chorus
Interlude 2
Solo
Chorus
Interlude 3
Outro

*********************************
|  x = Mute
|  ~ = Let Ring
|  b = Bend
*********************************
Tap to rate this tab
# A B C D E F G H I J K L M N O P Q R S T U V W X Y Z