Song name
# A B C D E F G H I J K L M N O P Q R S T U V W X Y Z

Green Day - Lady Cobra tab

Artist: Green Day
Album: ĄDOS!
Song: Lady Cobra
Submitter: Mazr3y

Please rate and comment. More tabs on the way.


Intro                            x2
e|------------------------------|
B|------------------------------|
G|------------------------------|
D|-9-9-9-9-9-9-9-9-9-9-9-9-9--7-|
A|-9-9-9-9-9-9-9-9-9-9-9-9-9--7-|
E|-7-0-7-0-7-0-7-0-7-0-7-0-7--5-|

Verse                            x10
e|------------------------------|
B|------------------------------|
G|------------------------------|
D|-9-9-9-9-9-9-9-9-9-9-9-9-9--7-|
A|-9-9-9-9-9-9-9-9-9-9-9-9-9--7-|
E|-7-0-7-0-7-0-7-0-7-0-7-0-7--5-|

Chorus                                                         x2
e|------------------------------------------------------------|
B|------------------------------------------------------------|
G|-7-7-7-7-7-7-7----------------------------------------------|
D|-7-7-7-7-7-7-7--7-7-7-7-7-7-7--9-9-9-9-9-9-9-9-9-9-9-9-9--7-|
A|-5-0-5-0-5-0-5--7-7-7-7-7-7-7--9-9-9-9-9-9-9-9-9-9-9-9-9--7-|
E|----------------5-0-5-0-5-0-5--7-0-7-0-7-0-7-0-7-0-7-0-7--5-|

Interlude
e|------------------------------------------------------------------------|
B|------------------------------------------------------------------------|
G|------------------------------------------------------------------------|
D|-4-4-4-4-4-4-4--7-7-7-7-7-7-7--4-4-4-4-4-4-4--7-7-7-7-7-7-7--8--9--9--7-|
A|-4-4-4-4-4-4-4--7-7-7-7-7-7-7--4-4-4-4-4-4-4--7-7-7-7-7-7-7--8--9--9--7-|
E|-2-0-2-0-2-0-2--5-0-5-0-5-0-5--2-0-2-0-2-0-2--5-0-5-0-5-0-5--6--7--7--5-|

Verse 2    Just this first bit   x3
e|------------------------------|
B|------------------------------|
G|------------------------------|
D|-9-9-9-9-9-9-9-9-9-9-9-9-9--7-|
A|-9-9-9-9-9-9-9-9-9-9-9-9-9--7-|
E|-7-0-7-0-7-0-7-0-7-0-7-0-7--5-|

e|-----------------|
B|-----------------|
G|------8-9-11-9-8-|
D|-9-11------------|
A|-----------------|
E|-----------------|

e|------------------------------|
B|------------------------------|
G|------------------------------|
D|-9-9-9-9-9-9-9-9-9-9-9-9-9--7-|
A|-9-9-9-9-9-9-9-9-9-9-9-9-9--7-|
E|-7-0-7-0-7-0-7-0-7-0-7-0-7--5-|

e|-----------------|
B|-----------------|
G|------8-9-11-9-8-|
D|-9-11------------|
A|-----------------|
E|-----------------|

e|------------------------------------------------------------|
B|------------------------------------------------------------|
G|-9-9-9-9-9-9-9-9-9-9-9-9-9----------------------------------|
D|-9-9-9-9-9-9-9-9-9-9-9-9-9--7--9-9-9-9-9-9-9-9-9-9-9-9-9--7-|
A|-7-0-7-0-7-0-7-0-7-0-7-0-7--7--9-9-9-9-9-9-9-9-9-9-9-9-9--7-|
E|----------------------------5--7-0-7-0-7-0-7-0-7-0-7-0-7--5-|

Solo Lead
e|-----------------------------19v-|
B|-----12v-17v---------16v-19v-----|
G|-11v---------16v-16v-------------|
D|---------------------------------|
A|---------------------------------|
E|---------------------------------|

NOTE: This solo is kind of hard to tab out because there is a lot going on during it, 
but this is the main thing.
There is also a second guitar using the same notes in the same order but hitting them 
multiple times.


Solo Rhythm                      x4
e|------------------------------|
B|------------------------------|
G|------------------------------|
D|-9-9-9-9-9-9-9-9-9-9-9-9-9--7-|
A|-9-9-9-9-9-9-9-9-9-9-9-9-9--7-|
E|-7-0-7-0-7-0-7-0-7-0-7-0-7--5-|

Outro      Just this first bit   x3
e|------------------------------|
B|------------------------------|
G|------------------------------|
D|-9-9-9-9-9-9-9-9-9-9-9-9-9--7-|
A|-9-9-9-9-9-9-9-9-9-9-9-9-9--7-|
E|-7-0-7-0-7-0-7-0-7-0-7-0-7--5-|

e|---------------------------------|
B|---------------------------------|
G|---------------------------------|
D|-9-9-9-9-9-9-9-9-9-9-9-9-9--7--9-|
A|-9-9-9-9-9-9-9-9-9-9-9-9-9--7--9-|
E|-7-0-7-0-7-0-7-0-7-0-7-0-7--5--7-|


Order:
Intro
Verse
Chorus
Interlude
Verse 2
Interlude
Solo
Chorus
Interlude
Outro

*********************************
| v  = Vibrate
*********************************
Tap to rate this tab
# A B C D E F G H I J K L M N O P Q R S T U V W X Y Z