Song name
# A B C D E F G H I J K L M N O P Q R S T U V W X Y Z

Green Day - Missing You tab

Green Day  Missing You Guitar Tab

THIS TAB IS FROM http://www.fastfingerfreddy.com/

INTRO x2
e|------0----------|-----------------|
B|------0----3-----|-----------------|
G|-2---------2-----|-----7---9---2---|
D|-2----2----0-----|-4---7---9---2---|
A|-0----2----------|-4---5---7---0---|
E|------0----------|-2---------------|

VERSE x1
"Waking up, feeling naked, in my clothes..."
e|-----------------|-----------------|-----------------|-----------------|
B|-----------------|-----------------|-----------------|-----------------|
G|-----------------|-----------------|-----------------|-----------------|
D|-7---------------|-----------------|-6-6-6-6-6-6-6-6-|-6-6-6-6-6-6-6-6-|
A|-7---7-7-7-7-7-7-|-7-7-7-7-7-7-7-7-|-4-4-4-4-4-4-4-4-|-4-4-4-4-4-4-4-4-|
E|-5---5-5-5-5-5-5-|-5-5-5-5-5-5-5-5-|-----------------|-----------------|
       .................................................................

e|-----------------|-----------------|-----------------|-----------------|
B|-----------------|-----------------|-----------------|-----------------|
G|-----------------|-----------------|-----------------|-----------------|
D|-7-7-7-7-7-7-7-7-|-7-7-7-7-7-7-7-7-|-----------------|---------------7-|
A|-5-5-5-5-5-5-5-5-|-5-5-5-5-5-5-5-5-|-7-7-7-7-7-7-7-7-|-7-7-7-7-7-7-7-7-|
E|-----------------|-----------------|-5-5-5-5-5-5-5-5-|-5-5-5-5-5-5-5-5-|
   ...................................................................

e|-----------------|-----------------|-----------------|-----------------|
B|-----------------|-----------------|-----------------|-----------------|
G|-----------------|-----------------|-6---------------|-----------------|
D|----x-7-7--------|----7----7-7-----|-6---6-6-6-6-6-6-|-6-6-6-6-6-6-6-6-|
A|----x-7-7--------|----7----7-7-----|-4---4-4-4-4-4-4-|-4-4-4-4-4-4-4-4-|
E|----x-5-5--------|----5----5-5-----|-----------------|-----------------|
                                           .............................

e|-----------------|-----------------|-----------------|-----------------|
B|-----------------|-----------------|-----------------|-----------------|
G|-----------------|-----------------|-----------------|-----------------|
D|-7-7-7-7-7-7-7-9-|---9-9-9-9-9-9-9-|-----------------|-------7-7-7-7-7-|
A|-5-5-5-5-5-5-5-7-|---7-7-7-7-7-7-7-|-7-7-7-7-7-7-7-7-|-7-7-7-7-7-7-7-7-|
E|-----------------|-----------------|-5-5-5-5-5-5-5-5-|-5-5-5-5-5-5-5-5-|
   .............       ...............................

PRE-CHORUS x1
"I searched the moon, I lost my head..."
e|-----------------|-----------------|-----------------|-----------------|
B|-----------------|-----------------|-----------------|-----------------|
G|-7---7-----------|-9---9-----------|-7---7-----------|-9---9-----------|
D|-7---7-7---7--7--|-9---9-7---7--7--|-7---7-7---7--7--|-9---9-7---7--7--|
A|-5---5-7---7--7--|-7---7-7---7--7--|-5---5-7---7--7--|-7---7-7---7--7--|
E|-------5---5--5--|-------5---5--5--|-------5---5--5--|-------5---5--5--|

e|-----------------|-----------------|-----------------|-----------------|
B|-----------------|-----------------|-----------------|-----------------|
G|-7---7-----------|-9---9-----------|-7-7-7-7-7-7-7-7-|-9-9-9-9-9-9-9-9-|
D|-7---7-7---7--7--|-9---9-7---7--7--|-7-7-7-7-7-7-7-7-|-9-9-9-9-9-9-9-9-|
A|-5---5-7---7--7--|-7---7-7---7--7--|-5-5-5-5-5-5-5-5-|-7-7-7-7-7-7-7-7-|
E|-------5---5--5--|-------5---5--5--|-----------------|-----------------|
CHORUS x2
"I'm missing you, I'm missing you, you're not around..."

e|-----------------|-----------------|-----------------|-----------------|
B|-----------------|-----------------|-----------------|-----------------|
G|-----------------|-9---9-9-9-9-9-9-|-7---7-7-7-7-7-7-|-7-7-7-7-7-7-7-7-|
D|-7---7-7-7-7-7-7-|-9---9-9-9-9-9-9-|-7---7-7-7-7-7-7-|-7-7-7-7-7-7-7-7-|
A|-7---7-7-7-7-7-7-|-7---7-7-7-7-7-7-|-5---5-5-5-5-5-5-|-5-5-5-5-5-5-5-5-|
E|-5---5-5-5-5-5-5-|-----------------|-----------------|-----------------|

e|-----------------|-----------------|-----------------|-----------------|
B|-----------------|-----------------|-----------------|-----------------|
G|-----------------|-6---6-6-6-6-6-6-|-7---7-7-7-7-7-7-|-7-7-7-7-7-9-9---|
D|-7---7-7-7-7-7-7-|-6---6-6-6-6-6-6-|-7---7-7-7-7-7-7-|-7-7-7-7-7-9-9---|
A|-7---7-7-7-7-7-7-|-4---4-4-4-4-4-4-|-5---5-5-5-5-5-5-|-5-5-5-5-5-7-7---|
E|-5---5-5-5-5-5-5-|-----------------|-----------------|-----------------|

VERSE x1
"Remember, was the first time, I told you I loved you at the bus station..."
e|-----------------|-----------------|-----------------|-----------------|
B|-----------------|-----------------|-----------------|-----------------|
G|-----------------|-----------------|-----------------|-----------------|
D|-7---------------|-----------------|-6-6-6-6-6-6-6-6-|-6-6-6-6-6-6-6-6-|
A|-7---7-7-7-7-7-7-|-7-7-7-7-7-7-7-7-|-4-4-4-4-4-4-4-4-|-4-4-4-4-4-4-4-4-|
E|-5---5-5-5-5-5-5-|-5-5-5-5-5-5-5-5-|-----------------|-----------------|
       .................................................................

e|-----------------|-----------------|-----------------|-----------------|
B|-----------------|-----------------|-----------------|-----------------|
G|-----------------|-----------------|-----------------|-----------------|
D|-7-7-7-7-7-7-7-7-|-7-7-7-7-7-7-7-7-|-----------------|---------------7-|
A|-5-5-5-5-5-5-5-5-|-5-5-5-5-5-5-5-5-|-7-7-7-7-7-7-7-7-|-7-7-7-7-7-7-7-7-|
E|-----------------|-----------------|-5-5-5-5-5-5-5-5-|-5-5-5-5-5-5-5-5-|
   ...................................................................

e|-----------------|-----------------|-----------------|-----------------|
B|-----------------|-----------------|-----------------|-----------------|
G|-----------------|-----------------|-6---------------|-----------------|
D|----x-7-7--------|----7----7-7-----|-6---6-6-6-6-6-6-|-6-6-6-6-6-6-6-6-|
A|----x-7-7--------|----7----7-7-----|-4---4-4-4-4-4-4-|-4-4-4-4-4-4-4-4-|
E|----x-5-5--------|----5----5-5-----|-----------------|-----------------|
                                           .............................

e|-----------------|-----------------|-----------------|-----------------|
B|-----------------|-----------------|-----------------|-----------------|
G|-----------------|-----------------|-----------------|-----------------|
D|-7-7-7-7-7-7-7-9-|---9-9-9-9-9-9-9-|-----------------|-------7-7-7-7-7-|
A|-5-5-5-5-5-5-5-7-|---7-7-7-7-7-7-7-|-7-7-7-7-7-7-7-7-|-7-7-7-7-7-7-7-7-|
E|-----------------|-----------------|-5-5-5-5-5-5-5-5-|-5-5-5-5-5-5-5-5-|
   .............       ...............................

PRE-CHORUS x1
"I searched the moon, I lost my head..."
e|-----------------|-----------------|-----------------|-----------------|
B|-----------------|-----------------|-----------------|-----------------|
G|-7---7-----------|-9---9-----------|-7---7-----------|-9---9-----------|
D|-7---7-7---7--7--|-9---9-7---7--7--|-7---7-7---7--7--|-9---9-7---7--7--|
A|-5---5-7---7--7--|-7---7-7---7--7--|-5---5-7---7--7--|-7---7-7---7--7--|
E|-------5---5--5--|-------5---5--5--|-------5---5--5--|-------5---5--5--|

e|-----------------|-----------------|-----------------|-----------------|
B|-----------------|-----------------|-----------------|-----------------|
G|-7---7-----------|-9---9-----------|-7-7-7-7-7-7-7-7-|-9-9-9-9-9-9-9-9-|
D|-7---7-7---7--7--|-9---9-7---7--7--|-7-7-7-7-7-7-7-7-|-9-9-9-9-9-9-9-9-|
A|-5---5-7---7--7--|-7---7-7---7--7--|-5-5-5-5-5-5-5-5-|-7-7-7-7-7-7-7-7-|
E|-------5---5--5--|-------5---5--5--|-----------------|-----------------|

CHORUS x2
"I'm missing you, I'm missing you, you're not around..."
e|-----------------|-----------------|-----------------|-----------------|
B|-----------------|-----------------|-----------------|-----------------|
G|-----------------|-9---9-9-9-9-9-9-|-7---7-7-7-7-7-7-|-7-7-7-7-7-7-7-7-|
D|-7---7-7-7-7-7-7-|-9---9-9-9-9-9-9-|-7---7-7-7-7-7-7-|-7-7-7-7-7-7-7-7-|
A|-7---7-7-7-7-7-7-|-7---7-7-7-7-7-7-|-5---5-5-5-5-5-5-|-5-5-5-5-5-5-5-5-|
E|-5---5-5-5-5-5-5-|-----------------|-----------------|-----------------|

e|-----------------|-----------------|-----------------|-----------------|
B|-----------------|-----------------|-----------------|-----------------|
G|-----------------|-6---6-6-6-6-6-6-|-7---7-7-7-7-7-7-|-7-7-7-7-7-9-9---|
D|-7---7-7-7-7-7-7-|-6---6-6-6-6-6-6-|-7---7-7-7-7-7-7-|-7-7-7-7-7-9-9---|
A|-7---7-7-7-7-7-7-|-4---4-4-4-4-4-4-|-5---5-5-5-5-5-5-|-5-5-5-5-5-7-7---|
E|-5---5-5-5-5-5-5-|-----------------|-----------------|-----------------|

SOLO x1
e|-----------------|-----------------|-----------------|-----------------|
B|--5----5----5----|-5-5-5-5-5-5-5-5-|--7----7----7----|-----------------|
G|--7b---7b---7----|-7-7-7-7-7-7-7-7-|--9b---9b---9----|-6-6-6-6-6-6-6-6-|
D|-----------------|-----------------|-----------------|-----------------|
A|-----------------|-----------------|-----------------|-----------------|
E|-----------------|-----------------|-----------------|-----------------|
e|-----------------|-----------------|-----------------|----------------------------|
B|--5----5----5----|-5-5-5-5-5-5-5-5-|--7----7----7----|-----19-----19b-----19------|
G|--7b---7b---7----|-7-7-7-7-7-7-7-7-|--9b---9b---9b---|-16b----16b-----16b----16b--|
D|-----------------|-----------------|-----------------|----------------------------|
A|-----------------|-----------------|-----------------|----------------------------|
E|-----------------|-----------------|-----------------|----------------------------|

BRIDGE x4
"Well she's my blood, well she's my soul..."
e|-----------------|-----------------|-----------------|-----------------|
B|-10---x-9----x-7-|--x-7-----7-7----|-10---x-9---x-10-|--x-10----10-10--|
G|-9----x-9----x-9-|--x-9-----9-9----|-9----x-9---x-9--|--x-9-----9--9---|
D|-----------------|-----------------|-----------------|-----------------|
A|-----------------|-----------------|-----------------|-----------------|
E|-----------------|-----------------|-----------------|-----------------|

INTRO x2
e|------0----------|-----------------|
B|------0----3-----|-----------------|
G|-2---------2-----|-----7---9---2---|
D|-2----2----0-----|-4---7---9---2---|
A|-0----2----------|-4---5---7---0---|
E|------0----------|-2---------------|

CHORUS x2
"I'm missing you, I'm missing you, you're not around..."
e|-----------------|-----------------|-----------------|-----------------|
B|-----------------|-----------------|-----------------|-----------------|
G|-----------------|-9---9-9-9-9-9-9-|-7---7-7-7-7-7-7-|-7-7-7-7-7-7-7-7-|
D|-7---7-7-7-7-7-7-|-9---9-9-9-9-9-9-|-7---7-7-7-7-7-7-|-7-7-7-7-7-7-7-7-|
A|-7---7-7-7-7-7-7-|-7---7-7-7-7-7-7-|-5---5-5-5-5-5-5-|-5-5-5-5-5-5-5-5-|
E|-5---5-5-5-5-5-5-|-----------------|-----------------|-----------------|

e|-----------------|-----------------|-----------------|-----------------|
B|-----------------|-----------------|-----------------|-----------------|
G|-----------------|-6---6-6-6-6-6-6-|-7---7-7-7-7-7-7-|-7-7-7-7-7-9-9---|
D|-7---7-7-7-7-7-7-|-6---6-6-6-6-6-6-|-7---7-7-7-7-7-7-|-7-7-7-7-7-9-9---|
A|-7---7-7-7-7-7-7-|-4---4-4-4-4-4-4-|-5---5-5-5-5-5-5-|-5-5-5-5-5-7-7---|
E|-5---5-5-5-5-5-5-|-----------------|-----------------|-----------------|

INTRO x1
e|------0----------|-----------------|
B|------0----3-----|-----------------|
G|-2---------2-----|-----7---9---2---|
D|-2----2----0-----|-4---7---9---2---|
A|-0----2----------|-4---5---7---0---|
E|------0----------|-2---------------|
Tap to rate this tab
# A B C D E F G H I J K L M N O P Q R S T U V W X Y Z