Song name
# A B C D E F G H I J K L M N O P Q R S T U V W X Y Z

Green Day - See You Tonight tab

Artist: Green Day
Album: ĄDOS!
Song: See You Tonight
Submitter: Mazr3y

Please rate and comment. This is a very easy song to play. Enjoy!!!


Intro
e|-x-------------------------------------------------------------|
B|-x---2--2-2-2-2-2---3--3-3-3-3-3---2--2-2-2-2-2---2--2-2-2-2-2-|
G|-x---2--2-2-2-2-2---2--2-2-2-2-2---2--2-2-2-2-2---2--2-2-2-2-2-|
D|-x---2--2-2-2-2-2---4--4-4-4-4-4---2--2-2-2-2-2---2--2-2-2-2-2-|
A|-x---0--0-0-0-0-0---0--0-0-0-0-0---0--0-0-0-0-0---0--0-0-0-0-0-|
E|-x-------------------------------------------------------------|

Chorus 1                                                      x2
e|-----------------------------------------------------------|
B|-2--2-2-2-2-2---3--3-3-3-3-3---2--2-2-2-2-2---2--2-2-2-2-2-|
G|-2--2-2-2-2-2---2--2-2-2-2-2---2--2-2-2-2-2---2--2-2-2-2-2-|
D|-2--2-2-2-2-2---4--4-4-4-4-4---2--2-2-2-2-2---2--2-2-2-2-2-|
A|-0--0-0-0-0-0---0--0-0-0-0-0---0--0-0-0-0-0---0--0-0-0-0-0-|
E|-----------------------------------------------------------|

Verse 1                                                       x2
e|-----------------------------------------------------------|
B|-2--2-2-2-2-2---3--3-3-3-3-3---2--2-2-2-2-2---2--2-2-2-2-2-|
G|-2--2-2-2-2-2---2--2-2-2-2-2---2--2-2-2-2-2---2--2-2-2-2-2-|
D|-2--2-2-2-2-2---4--4-4-4-4-4---2--2-2-2-2-2---2--2-2-2-2-2-|
A|-0--0-0-0-0-0---0--0-0-0-0-0---0--0-0-0-0-0---0--0-0-0-0-0-|
E|-----------------------------------------------------------|

Bridge                                                        x2
e|-------------------------------2--2-2-2-2-2----------------|
B|-0--0-0-0-0-0---0--0-0-0-0-0---3--3-3-3-3-3---2--2-2-2-2-2-|
G|-1--1-1-1-1-1---1--1-1-1-1-1---2--2-2-2-2-2---2--2-2-2-2-2-|
D|-2--2-2-2-2-2---2--2-2-2-2-2---0--0-0-0-0-0---2--2-2-2-2-2-|
A|-2--2-2-2-2-2---2--2-2-2-2-2------------------0--0-0-0-0-0-|
E|-0--0-0-0-0-0---0--0-0-0-0-0-------------------------------|

Verse 2
e|-2--2-2-2-2-2---2--2-2-2-2-2-------------------------------|
B|-3--3-3-3-3-3---3--3-3-3-3-3---2--2-2-2-2-2---2--2-2-2-2-2-|
G|-2--2-2-2-2-2---2--2-2-2-2-2---2--2-2-2-2-2---2--2-2-2-2-2-|
D|-0--0-0-0-0-0---0--0-0-0-0-0---2--2-2-2-2-2---2--2-2-2-2-2-|
A|-------------------------------0--0-0-0-0-0---0--0-0-0-0-0-|
E|-----------------------------------------------------------|

e|-----------------------------------------------------------|
B|-0--0-0-0-0-0---0--0-0-0-0-0---2--2-2-2-2-2---2--2-2-2-2-2-|
G|-1--1-1-1-1-1---1--1-1-1-1-1---2--2-2-2-2-2---2--2-2-2-2-2-|
D|-2--2-2-2-2-2---2--2-2-2-2-2---2--2-2-2-2-2---2--2-2-2-2-2-|
A|-2--2-2-2-2-2---2--2-2-2-2-2---0--0-0-0-0-0---0--0-0-0-0-0-|
E|-0--0-0-0-0-0---0--0-0-0-0-0-------------------------------|

Chorus 2
e|-----------------------------------------------------------|
B|-2--2-2-2-2-2---3--3-3-3-3-3---2--2-2-2-2-2---2--2-2-2-2-2-|
G|-2--2-2-2-2-2---2--2-2-2-2-2---2--2-2-2-2-2---2--2-2-2-2-2-|
D|-2--2-2-2-2-2---4--4-4-4-4-4---2--2-2-2-2-2---2--2-2-2-2-2-|
A|-0--0-0-0-0-0---0--0-0-0-0-0---0--0-0-0-0-0---0--0-0-0-0-0-|
E|-----------------------------------------------------------|

e|-------------------------------------------------|
B|-2--2-2-2-2-2---3--3-3-3-3-3---2--2-2-2-2-2---2~-|
G|-2--2-2-2-2-2---2--2-2-2-2-2---2--2-2-2-2-2---2~-|
D|-2--2-2-2-2-2---4--4-4-4-4-4---2--2-2-2-2-2---2~-|
A|-0--0-0-0-0-0---0--0-0-0-0-0---0--0-0-0-0-0---0~-|
E|-------------------------------------------------|


Order: 
Intro
Chorus 1
Verse 1
Bridge
Verse 2
Chorus 2

*********************************
|  x = Mute
|  ~ = Let Ring
*********************************
Tap to rate this tab
 
# A B C D E F G H I J K L M N O P Q R S T U V W X Y Z