Song name
# A B C D E F G H I J K L M N O P Q R S T U V W X Y Z

Green Day - Baby Eyes tab

Artist: Green Day
Album: ĄDOS!
Song: Baby Eyes
Submitter: Mazr3y

Please rate and comment. More tabs yet to come.


Intro Rhythm                                             x2
e|------------------------------------------------------|
B|------------------------------------------------------|
G|-4-4------------------------------------5-5-5-5-5-5-5-|
D|-4-4--4-4-4--5-5-5-5-5-5-5--2-2--5-5-5--5-5-5-5-5-5-5-|
A|-2-2--4-4-4--5-5-5-5-5-5-5--2-2--5-5-5--3-3-3-3-3-3-3-|
E|------2-2-2--3-3-3-3-3-3-3--0-0--3-3-3----------------|

Intro Lead                                               x2
e|------------------------------------------------------|
B|------------------------------------------------------|
G|-----------------------------------------------4br~---|
D|------------------------------------------------------|
A|------------------------------------------------------|
E|------------------------------------------------------|

Verse                                                             x2
e|---------------------------------------------------------------|
B|---------------------------------------------------------------|
G|-4-4-4-4-4-4-4--9-9-9-9-9-9-9--4-4-4-4-4-4-4-4-4-4-4-4-4-4-4-4-|
D|-4-4-4-4-4-4-4--9-9-9-9-9-9-9--4-4-4-4-4-4-4-4-4-4-4-4-4-4-4-4-|
A|-2-2-2-2-2-2-2--7-7-7-7-7-7-7--2-2-2-2-2-2-2-2-2-2-2-2-2-2-2-2-|
E|---------------------------------------------------------------|

e|---------------------------------------------------|
B|---------------------------------------------------|
G|---------------------------4-4-4-4-4-4-4-4-4-4-4-4-|
D|-2-2-2-2-2--4-4-4-4-4-4-4--4-4-4-4-4-4-4-4-4-4-4-4-|
A|-2-2-2-2-2--4-4-4-4-4-4-4--2-2-2-2-2-2-2-2-2-2-2-2-|
E|-0-0-0-0-0--2-2-2-2-2-2-2--------------------------|

Chorus 1
e|------------------------------------------------------------------------------------------|
B|------------------------------------------------------------------------------------------|
G|---------------------------4-4-4-4--------------------------------4-4-4-4-4-4-4-4-4-4-4-4-|
D|-2-2-2-2--4-4-4-4-4-4-4-4--4-4-4-4--2-2-2-2-2-2-2-2-2-2--4-4-4-4--4-4-4-4-4-4-4-4-4-4-4-4-|
A|-2-2-2-2--4-4-4-4-4-4-4-4--2-2-2-2--2-2-2-2-2-2-2-2-2-2--4-4-4-4--2-2-2-2-2-2-2-2-2-2-2-2-|
E|-0-0-0-0--2-2-2-2-2-2-2-2-----------0-0-0-0-0-0-0-0-0-0--2-2-2-2--------------------------|

--------------------------------------------------------------------|
--------------------------------------------------------------------|
------------------------------------6-6-6-6-6-6-6-6-6-6-6-6-6-6-6-6-|
-2-2-2-2--4-4-4-4-4-4-4-4--6-6-6-6--6-6-6-6-6-6-6-6-6-6-6-6-6-6-6-6-|
-2-2-2-2--4-4-4-4-4-4-4-4--6-6-6-6--4-4-4-4-4-4-4-4-4-4-4-4-4-4-4-4-|
-0-0-0-0--2-2-2-2-2-2-2-2--4-4-4-4----------------------------------|

------------------|
------------------|
------------------|
-2-2-2-2--4-4-4-4-|
-2-2-2-2--4-4-4-4-|
-0-0-0-0--2-2-2-2-|

Chorus 2
e|------------------------------------------------------------------------------------------|
B|------------------------------------------------------------------------------------------|
G|---------------------------4-4-4-4--------------------------------4-4-4-4-4-4-4-4-4-4-4-4-|
D|-2-2-2-2--4-4-4-4-4-4-4-4--4-4-4-4--2-2-2-2-2-2-2-2-2-2--4-4-4-4--4-4-4-4-4-4-4-4-4-4-4-4-|
A|-2-2-2-2--4-4-4-4-4-4-4-4--2-2-2-2--2-2-2-2-2-2-2-2-2-2--4-4-4-4--2-2-2-2-2-2-2-2-2-2-2-2-|
E|-0-0-0-0--2-2-2-2-2-2-2-2-----------0-0-0-0-0-0-0-0-0-0--2-2-2-2--------------------------|

--------------------------------------------------------------------|
--------------------------------------------------------------------|
------------------------------------6-6-6-6-6-6-6-6-6-6-6-6-6-6-6-6-|
-2-2-2-2--4-4-4-4-4-4-4-4--6-6-6-6--6-6-6-6-6-6-6-6-6-6-6-6-6-6-6-6-|
-2-2-2-2--4-4-4-4-4-4-4-4--6-6-6-6--4-4-4-4-4-4-4-4-4-4-4-4-4-4-4-4-|
-0-0-0-0--2-2-2-2-2-2-2-2--4-4-4-4----------------------------------|

-----------------------------------------------------------------|
-----------------------------------------------------------------|
-----------------------------------------------------------------|
-2-2-2-2--4-4-4-4-4-4-4-4--2-2-2-2--4-4-4-4-4-4-4-4--2-2-2-2--4~-|
-2-2-2-2--4-4-4-4-4-4-4-4--2-2-2-2--4-4-4-4-4-4-4-4--2-2-2-2--4~-|
-0-0-0-0--2-2-2-2-2-2-2-2--0-0-0-0--2-2-2-2-2-2-2-2--0-0-0-0--2~-|

Outro Rhythm                                             x4
e|------------------------------------------------------|
B|------------------------------------------------------|
G|-4-4------------------------------------5-5-5-5-5-5-5-|
D|-4-4--4-4-4--5-5-5-5-5-5-5--2-2--5-5-5--5-5-5-5-5-5-5-|
A|-2-2--4-4-4--5-5-5-5-5-5-5--2-2--5-5-5--3-3-3-3-3-3-3-|
E|------2-2-2--3-3-3-3-3-3-3--0-0--3-3-3----------------|

Outro Lead                                               x4
e|------------------------------------------------------|
B|------------------------------------------------------|
G|-----------------------------------------------4br~---|
D|------------------------------------------------------|
A|------------------------------------------------------|
E|------------------------------------------------------|

Finish with this
e|---|
B|---|
G|-4-|
D|-4-|
A|-2-|
E|---|


Order: 
Intro
Verse
Chorus 1
Intro
Verse
Chorus 2
Outro

*********************************
|  br = Bend Release
|  ~ = Let Ring
*********************************
Tap to rate this tab
# A B C D E F G H I J K L M N O P Q R S T U V W X Y Z