Song name
# A B C D E F G H I J K L M N O P Q R S T U V W X Y Z

Green Day - Stop When The Red Lights Flash tab

-----------------------------------------------------------------------------
              Stop When The Red Lights Flash - Green Day
-----------------------------------------------------------------------------
Tabbed by: ehbacon
E-mail: ehbacon@att.net

Tuning: Standard

Intro:

e|------------------------------------------------------------|
B|------------------------------------------------------------|
G|--7-------------------------7-------------------------------|
D|-777-XX7\5/7---------------777-777\5/7----------------------|
A|-757-XX7\5/7-(x8-cleanly)--757-777\5/7-(x4-with-distortion)-|
E|-5-5-XX5\3/5---------------5-5-555\3/5----------------------|

Verse (full distortion):

e|------------------------------------------------------------|
B|------------------------------------------------------------|
G|-7777777777777-1212-7777777777777777--7-----------7---------|
D|-7777777777777-1212-7777777777777777-777-777\5/7-777-777\5/7|
A|-5555555555555-1010-5555555555555555-757-777\5/7-757-777\5/7|
E|-------------------------------------5-5-555\3/5-5-5-555\3/5|

  Uncomfortable silence...

e|------------------------------------------------------------|
B|------------------------------------------------------------|
G|-7777777777777-1212-7777777777777777--7-----------7---------|
D|-7777777777777-1212-7777777777777777-777-777\5/7-777-777\5/7|
A|-5555555555555-1010-5555555555555555-757-777\5/7-757-777\5/7|
E|-------------------------------------5-5-555\3/5-5-5-555\3/5|

   I'm like ultra-violence...

e|----------------------------------------------|
B|----------------------------------------------|
G|-9999999999999999-7777777777777777--7---------|
D|-9999999999999999-7777777777777777-777-777\5/7|
A|-7777777777777777-5555555555555555-757-777\5/7|
E|-----------------------------------5-5-555\3/5|

   Out of sight out of mind...

e|------------------------------------------------------------------------|
B|------------------------------------------------------------------------|
G|--7-----------7-----------7----------7777777777777-1212-7777777777777777|
D|-777-777\5/7-777-777\5/7-777-777\5/7-7777777777777-1212-7777777777777777|
A|-757-777\5/7-757-777\5/7-757-777\5/7-5555555555555-1010-5555555555555555|
E|-5-5-555\3/5-5-5-555\3/5-5-5-555\3/5------------------------------------|

  I'll make you surrender...           Stop when the red lights flash...

e|------------------------------------------------------------------------|
B|------------------------------------------------------------------------|
G|--7-----------7----------7777777777777-1212-7777777777777777--7---------|
D|-777-777\5/7-777-777\5/7-7777777777777-1212-7777777777777777-777-777\5/7|
A|-757-777\5/7-757-777\5/7-5555555555555-1010-5555555555555555-757-777\5/7|
E|-5-5-555\3/5-5-5-555\3/5-------------------------------------5-5-555\3/5|

                            Life in the catacombs...

e|----------------------------------------------------------|
B|----------------------------------------------------------|
G|--7----------9999999999999999-7777777777777777--7---------|
D|-777-777\5/7-9999999999999999-7777777777777777-777-777\5/7|
A|-757-777\5/7-7777777777777777-5555555555555555-757-777\5/7|
E|-5-5-555\3/5-----------------------------------5-5-555\3/5|
 
               Out of sight out of mind...

e|-------------------------------------|
B|-------------------------------------|
G|--7-----------7-----------7----------|
D|-777-777\5/7-777-777\5/7-777-777\5/7-|
A|-757-777\5/7-757-777\5/7-757-777\5/7-|
E|-5-5-555\3/5-5-5-555\3/5-5-5-555\3/5-|

   I'll make you surrender...

Solo (full distortion):

e|-------------------------------------------------------------12-------|
B|-10--10--10-10--10-10---10-10-10--10--10-10---12-12-12---14v---14v-12v|
G|-12b-12b-12b12b-12-11---12b12b12b-12b-12b12b--14b14b14b---------------|
D|----------------------------------------------------------------------|
A|----------------------------------------------------------------------|
E|----------------------------------------------------------------------|

e|--------------------------------------------------------------------------|
B|-10--10--10-10--10-10---10-10-10--10--10-10---12-12-12---14v--14v-14v-14b-|
G|-12b-12b-12b12b-12-11---12b12b12b-12b-12b12b--14b14b14b-------------------|
D|--------------------------------------------------------------------------|
A|--------------------------------------------------------------------------|
E|--------------------------------------------------------------------------|

e|---------|
B|-----12v-|
G|-14v-----|
D|---------|
A|---------|
E|---------|


Chorus (small distortion):

e|---------------------------------------------------------------------|
B|---------------------------------------------------------------------|
G|-7----------------7-----------------7---------------7----------------|
D|-7XXXXXXXXXXXXXX-77XXXXXXXXXXXXXXX-77XXXXXXXXXXXXXX-77XXXXXXXXXXXXXX-|
A|-5XXXXXXXXXXXXXX-75XXXXXXXXXXXXXXX-75XXXXXXXXXXXXXX-57XXXXXXXXXXXXXX-|
E|--XXXXXXXXXXXXXX-5-XXXXXXXXXXXXXXX-5-XXXXXXXXXXXXXX--5XXXXXXXXXXXXXX-|

   Out of sight out of mind...

outro (full distortion):

e|-----------------------|
B|-----------------------|
G|--7----------------7---|
D|-777-777\5/7------777--|
A|-757-777\5/7-(x8)-757--|
E|-5-5-555\3/5------5-5--|

  I'll make you surrender...


in that order ^
************************************

| /   slide up
| \   slide down
| x   Mute note
| b   Bend
| v   vibrate
************************************
Tap to rate this tab
 
# A B C D E F G H I J K L M N O P Q R S T U V W X Y Z