Song name
# A B C D E F G H I J K L M N O P Q R S T U V W X Y Z

Green Day - Pulling Teeth tab

Green Day - Pulling Teeth guitar tab


============================
TUNE GUITAR DOWN HALF A STEP
============================


INTRO a x1
eb|-----------------|
Bb|-----------------|
Gb|-4-4-4----4------|
Db|-4-4-4----4------|
Ab|-2-2-2----2------|
Eb|-----------------|


INTRO b x1
eb|-----------------|-----------------|-----------------|-----------------|
Bb|-----4-------4---|-----4-----5-5-5-|-----4-------4---|-----4-----5-5-5-|
Gb|-4-4-4-4-4-4-4-4-|-4-4-4-4-4-4-4-4-|-4-4-4-4-4-4-4-4-|-4-4-4-4-4-4-4-4-|
Db|-4-4-4-4-4-4-4-4-|-4-4-4-4-4-4-4-4-|-4-4-4-4-4-4-4-4-|-4-4-4-4-4-4-4-4-|
Ab|-2-2-2-2-2-2-2-2-|-0-0-0-0-0-0-0-0-|-2-2-2-2-2-2-2-2-|-0-0-0-0-0-0-0-0-|
Eb|-----------------|-----------------|-----------------|-----------------|

eb|-----------------|-----------------|-----------------|-----------------|
Bb|-----4-------4---|-----4-----5-5-5-|-----4-------4---|-----4-----------|
Gb|-4-4-4-4-4-4-4-4-|-4-4-4-4-4-4-4-4-|-4-4-4-4-4-4-4-4-|-4-4-4-4-4-------|
Db|-4-4-4-4-4-4-4-4-|-4-4-4-4-4-4-4-4-|-4-4-4-4-4-4-4-4-|-2-2-2-2-2-------|
Ab|-2-2-2-2-2-2-2-2-|-0-0-0-0-0-0-0-0-|-2-2-2-2-2-2-2-2-|-0-0-0-0-0-------|
Eb|-----------------|-----------------|-----------------|-----------------|


VERSE x2
"I'm all busted up, broken bones and nasty cuts..."
eb|-0---0-0-0-0---0-|---0-0-0-0-0-0-0-|-0---0-0-0-0-----|-----------------|
Bb|-0---0-0-0-0---2-|---2-2-2-2-0-0-0-|-0---0-0-0-0---4-|---4-4-4-4-4-4-0-|
Gb|-1---1-1-1-1---2-|---2-2-2-2-2-2-0-|-1---1-1-1-1---4-|---4-4-4-4-4-4-0-|
Db|-2---2-2-2-2---2-|---2-2-2-2-2-2-0-|-2---2-2-2-2---4-|---4-4-4-4-4-4-0-|
Ab|-2---2-2-2-2---0-|---0-0-0-0-0-0-0-|-2---2-2-2-2---2-|---2-2-2-2-2-2-0-|

Eb|-0---0-0-0-0-0---|-----------------|-0---0-0-0-0-0---|-----------------|
eb|-0---0-0-0-0---0-|---0-0-0-0-0-0-0-|-0--0--------0-0-|-0-0-0-0-0-0-0-0-|
Bb|-0---0-0-0-0---2-|---2-2-2-2-0-0-0-|-0--0----4-4-0-0-|-0-0-0-0-0-0-0-0-|
Gb|-1---1-1-1-1---2-|---2-2-2-2-2-2-0-|-1--1----4-4-0-1-|-1-1-1-1-1-1-1-1-|
Db|-2---2-2-2-2---2-|---2-2-2-2-2-2-0-|-2--2----4-4-0-2-|-2-2-2-2-2-2-2-2-|
Ab|-2---2-2-2-2---0-|---0-0-0-0-0-0-0-|-2--2----2-2---2-|-2-2-2-2-2-2-2-2-|
Eb|-0---0-0-0-0-0---|-----------------|-0--0--0-------0-|-0-0-0-0-0-0-0-0-|


PRE-CHORUS x1
"Is this ultra violent, is she disturbed..."
eb|-----4-4-----4-4-|-----4-4-----4-4-|-0---0---0-0-0-0-|---0-0-0-0-0-0-0-|
Bb|-----5-5-----5-5-|-----5-5-----5-5-|-0---0---0-0-0-0-|---0-0-0-0-0-0-0-|
Gb|-----6-6-----6-6-|-----6-6-----6-6-|-1---1---1-1-1-1-|---1-1-1-1-1-1-0-|
Db|-6-6-----6-6-----|-6-6-----6-6-----|-2---2---2-2-2-2-|---2-2-2-2-2-2-0-|
Ab|-4-4-----4-4-----|-4-4-----4-4-----|-2---2---2-2-2-2-|---2-2-2-2-2-2-0-|
Eb|-----------------|-----------------|-0---0---0-0-0-0-|---0-0-0-0-0-0-0-|


eb|-----4-4-----4-4-|-----4-4-----4-4-|-----------------|-----------------|
Bb|-----5-5-----5-5-|-----5-5-----5-5-|-4-4-4-4-4-4-4-4-|-4-4-4-4-4-------|
Gb|-----6-6-----6-6-|-----6-6-----6-6-|-4-4-4-4-4-4-4-4-|-4-4-4-4-4-------|
Db|-6-6-----6-6-----|-6-6-----6-6-----|-4-4-4-4-4-4-4-4-|-4-4-4-4-4-------|
Ab|-4-4-----4-4-----|-4-4-----4-4-----|-2-2-2-2-2-2-2-2-|-2-2-2-2-2-------|
Eb|-----------------|-----------------|-----------------|-----------------|

CHORUS x1 (same as verse)
"For now I'll lie around, hell that's all I can really do..."
eb|-0---0-0-0-0---0-|---0-0-0-0-0-0-0-|-0---0-0-0-0-----|-----------------|
Bb|-0---0-0-0-0---2-|---2-2-2-2-0-0-0-|-0---0-0-0-0---4-|---4-4-4-4-4-4-0-|
Gb|-1---1-1-1-1---2-|---2-2-2-2-2-2-0-|-1---1-1-1-1---4-|---4-4-4-4-4-4-0-|
Db|-2---2-2-2-2---2-|---2-2-2-2-2-2-0-|-2---2-2-2-2---4-|---4-4-4-4-4-4-0-|
Ab|-2---2-2-2-2---0-|---0-0-0-0-0-0-0-|-2---2-2-2-2---2-|---2-2-2-2-2-2-0-|
Eb|-0---0-0-0-0-0---|-----------------|-0---0-0-0-0-0---|-----------------|


eb|-0---0-0-0-0---0-|---0-0-0-0-0-0-0-|-0--0--------0-0-|-0-0-0-0-0-0-0-0-|
Bb|-0---0-0-0-0---2-|---2-2-2-2-0-0-0-|-0--0----4-4-0-0-|-0-0-0-0-0-0-0-0-|
Gb|-1---1-1-1-1---2-|---2-2-2-2-2-2-0-|-1--1----4-4-0-1-|-1-1-1-1-1-1-1-1-|
Db|-2---2-2-2-2---2-|---2-2-2-2-2-2-0-|-2--2----4-4-0-2-|-2-2-2-2-2-2-2-2-|
Ab|-2---2-2-2-2---0-|---0-0-0-0-0-0-0-|-2--2----2-2---2-|-2-2-2-2-2-2-2-2-|
Eb|-0---0-0-0-0-0---|-----------------|-0--0--0-------0-|-0-0-0-0-0-0-0-0-|

SOLO x1
eb|-0-0---0----0--0-|---0---0---0-0-0-|-0-0--0----0-----|----------------------|
Bb|-0h2---0--0-0--2-|---2-2-2-0-0-0-0-|-0h2--0--0-0-4-4-|--5-5-5-7-7-7-5--4--0-|
Gb|----------1-1--2-|---2-2-2-1-------|---------1-0-4-4-|--6-6-6-8-8-8-6--4--4-|
Db|-----------------|-----2-----------|-----------------|----------------------|
Ab|-----------------|-----------------|-----------------|----------------------|
Eb|-----------------|-----------------|-----------------|----------------------|

eb|-0-0-0-000-0--0-0--|-0--0--0--0--0-0-0--0--|-0-----0----0----0-0-|-----0-12-12----12----|
Bb|-5-5-5-999-10-9-10-|-12-12-10-10-9-9-10-10-|-10\9--9\7--7\5--5---|---0---12----12----12-|
Gb|-------------------|-----------------------|---------------------|---1------------------|
Db|-------------------|-----------------------|---------------------|----------------------|
Ab|-------------------|-----------------------|---------------------|----------------------|
Eb|-------------------|-----------------------|---------------------|----------------------|
  **************


PRE-CHORUS x1
"Is this ultra violent, is she disturbed..."
eb|-----4-4-----4-4-|-----4-4-----4-4-|-0---0---0-0-0-0-|---0-0-0-0-0-0-0-|
Bb|-----5-5-----5-5-|-----5-5-----5-5-|-0---0---0-0-0-0-|---0-0-0-0-0-0-0-|
Gb|-----6-6-----6-6-|-----6-6-----6-6-|-1---1---1-1-1-1-|---1-1-1-1-1-1-0-|
Db|-6-6-----6-6-----|-6-6-----6-6-----|-2---2---2-2-2-2-|---2-2-2-2-2-2-0-|
Ab|-4-4-----4-4-----|-4-4-----4-4-----|-2---2---2-2-2-2-|---2-2-2-2-2-2-0-|
Eb|-----------------|-----------------|-0---0---0-0-0-0-|---0-0-0-0-0-0-0-|

eb|-----4-4-----4-4-|-----4-4-----4-4-|
Bb|-----5-5-----5-5-|-----5-5-----5-5-|
Gb|-----6-6-----6-6-|-----6-6-----6-6-|
Db|-6-6-----6-6-----|-6-6-----6-6-----|
Ab|-4-4-----4-4-----|-4-4-----4-4-----|
Eb|-----------------|-----------------|


INTRO b x2
"Looking out my window for someone that's passing by..."
eb|-----------------|-----------------|-----------------|-----------------|
Bb|-----4-------4---|-----4-----5-5-5-|-----4-------4---|-----4-----5-5-5-|
Gb|-4-4-4-4-4-4-4-4-|-4-4-4-4-4-4-4-4-|-4-4-4-4-4-4-4-4-|-4-4-4-4-4-4-4-4-|
Db|-4-4-4-4-4-4-4-4-|-4-4-4-4-4-4-4-4-|-4-4-4-4-4-4-4-4-|-4-4-4-4-4-4-4-4-|
Ab|-2-2-2-2-2-2-2-2-|-0-0-0-0-0-0-0-0-|-2-2-2-2-2-2-2-2-|-0-0-0-0-0-0-0-0-|
Eb|-----------------|-----------------|-----------------|-----------------|

then
x1

eb|-----------------|-----------------|-----------------|-----------------|
Bb|-----4-------4---|-----4-----5-5-5-|-----4-------4---|-----4-----------|
Gb|-4-4-4-4-4-4-4-4-|-4-4-4-4-4-4-4-4-|-4-4-4-4-4-4-4-4-|-4-4-4-4-4-------|
Db|-4-4-4-4-4-4-4-4-|-4-4-4-4-4-4-4-4-|-4-4-4-4-4-4-4-4-|-2-2-2-2-2-------|
Ab|-2-2-2-2-2-2-2-2-|-0-0-0-0-0-0-0-0-|-2-2-2-2-2-2-2-2-|-0-0-0-0-0-------|
Eb|-----------------|-----------------|-----------------|-----------------|


OUTRO x1 (same as chorus with different ending)
"For now I'll lie around, hell that's all I can really do..."
eb|-0---0-0-0-0---0-|---0-0-0-0-0-0-0-|-0---0-0-0-0-----|-----------------|
Bb|-0---0-0-0-0---2-|---2-2-2-2-0-0-0-|-0---0-0-0-0---4-|---4-4-4-4-4-4-0-|
Gb|-1---1-1-1-1---2-|---2-2-2-2-2-2-0-|-1---1-1-1-1---4-|---4-4-4-4-4-4-0-|
Db|-2---2-2-2-2---2-|---2-2-2-2-2-2-0-|-2---2-2-2-2---4-|---4-4-4-4-4-4-0-|
Ab|-2---2-2-2-2---0-|---0-0-0-0-0-0-0-|-2---2-2-2-2---2-|---2-2-2-2-2-2-0-|
Eb|-0---0-0-0-0-0---|-----------------|-0---0-0-0-0-0---|-----------------|


"...my love is true..."
eb|-0---0-0-0-0---0-|---0-0-0-0-0-0-0-|--0--------------|-0---------------|
Bb|-0---0-0-0-0---2-|---2-2-2-2-0-0-0-|--0---4---2---4--|-0---------------|
Gb|-1---1-1-1-1---2-|---2-2-2-2-2-2-0-|--1---4---2---4--|-1---------------|
Db|-2---2-2-2-2---2-|---2-2-2-2-2-2-0-|--2---4---2---4--|-2---------------|
Ab|-2---2-2-2-2---0-|---0-0-0-0-0-0-0-|--2---2---0---2--|-2---------------|
Eb|-0---0-0-0-0-0---|-----------------|--0--------------|-0---------------|
Tap to rate this tab
# A B C D E F G H I J K L M N O P Q R S T U V W X Y Z