Song name
# A B C D E F G H I J K L M N O P Q R S T U V W X Y Z

Green Day - X-kid tab

X-Kid - Green Day
íTre!
2013

Guitar 1 - Billie Joe Armstrong
Guitar 2 - Jason White

Tabbed by will_mitton

b - bend
r - release bend
^ - play already bent
/ - slide up
\ - slide down
. - palm mute
~ - vibrato

In my opinion this would have to be one of Green Day's best songs to date. The other 
tabs were a fair way off so I made my own. Listen to the song for timing. If there are any 
problems let me know. Please rate and comment!

Intro x1
  E5        C#m7     B5       Asus2
e|-------------------------------------|
B|-------------------------------------|
G|-4---4-4--4---4-4--4---4-4--4---4-4--|
D|-2---2-2--2---2-2--4---4-4--2---2-2--|
A|----------4---4-4--2---2-2--0---0-0--|
E|-------------------------------------|


Verse[a] x2
e|-------------------------------------|
B|-------------------------------------|
G|-4---4-4--4---4-4--4---4-4--4---4-4--|
D|-2---2-2--2---2-2--4---4-4--2---2-2--|
A|----------4---4-4--2---2-2--0---0-0--|
E|-------------------------------------|

Pre Chorus x1

   E5*      B5       C#5      A5
e|-------------------------------------|----------------------------------------------|
B|-------------------------------------|----------------------------------------------|
G|----------4---4-4--6---6-6--2---2-2--|-4---4-4--4---4-4--4---4-4--2-2222222-2-222224|
D|-2---2-2--4---4-4--6---6-6--2---2-2--|-2---2-2--2---2-2--4---4-4--2-2222222-2-222224|
A|-2---2-2--2---2-2--4---4-4--0---0-0--|----------4---4-4--2---2-2--0-0000000-0-000002|
E|-0---0-0-----------------------------|----------------------------------------------|

Chorus x1

   E
e|-0-00-00----------------------------|-0-00-00-------------------------------------|
B|-0-00-00----------------------------|-0-00-00-------------------------------------|
G|-1-11-11-4-444444-6-666666-2-222224-|-1-11-11-4-444444-6-666666-2-222222-2-222224-|
D|-2-22-22-4-444444-6-666666-2-222224-|-2-22-22-4-444444-6-666666-2-222222-2-222224-|
A|-2-22-22-2-222222-4-444444-0-000002-|-2-22-22-2-222222-4-444444-0-000000-0-000002-|
E|-0-00-00----------------------------|-0-00-00-------------------------------------|


Verse[b] x3

  E5        C#m7     B5       Asus2
e|-------------------------------------|
B|-------------------------------------|
G|-------------------------------------|
D|-9---9-9--9---9-9--9---9-9--9---9-9--|
A|-7---7-7--7---7-7--9---9-9--7---7-7--|
E|----------9---9-9--7---7-7--5---5-5--|

Pre Chorus x1
e|-------------------------------------|----------------------------------------------|
B|-------------------------------------|----------------------------------------------|
G|----------4---4-4--6---6-6--2---2-2--|-4---4-4--4---4-4--4---4-4--2-2222222-2-222224|
D|-2---2-2--4---4-4--6---6-6--2---2-2--|-2---2-2--2---2-2--4---4-4--2-2222222-2-222224|
A|-2---2-2--2---2-2--4---4-4--0---0-0--|----------4---4-4--2---2-2--0-0000000-0-000002|
E|-0---0-0-----------------------------|----------------------------------------------|


Chorus x1 (don't let the final chord ring)

e|-0-00-00----------------------------|-0-00-00------------------------------------x|
B|-0-00-00----------------------------|-0-00-00------------------------------------x|
G|-1-11-11-4-444444-6-666666-2-222224-|-1-11-11-4-444444-6-666666-2-222222-2-222222x|
D|-2-22-22-4-444444-6-666666-2-222224-|-2-22-22-4-444444-6-666666-2-222222-2-222222x|
A|-2-22-22-2-222222-4-444444-0-000002-|-2-22-22-2-222222-4-444444-0-000000-0-000000x|
E|-0-00-00----------------------------|-0-00-00------------------------------------x|

Bridge  x1

e|--------------------|   e|--------------------------------|
B|--------------------|   B|--------------------------------|
G|-2-2-2-2---4-444444-|x3 G|-2-22222222222222-2-222222222224|
D|-2-2-2-2-2-4-444444-|   D|-2-22222222222222-2-222222222224|
A|-0-0-0-0-2-2-222222-|   A|-0-00000000000000-0-000000000002|
E|---------0----------|   E|--------------------------------|
                                                       .............    ...........
                                                       >crescendo when palm muting<

Solo x1 - Guitar 2

e|-----------------------------------------------------------------------|
B|-5/9-9-9-9-7-9--/12-12-12-12-12-12--12--12-12--12-12-12-\10--10-10---10|
G|-5/9-9-9-9-9-9--/13-13-13-13-14-13--11--11-11--11-13-11-\9---9--9----9-|
D|-----------------------------------------------------------------------|
A|-----------------------------------------------------------------------|
E|-----------------------------------------------------------------------|

e|---------------------------------------------12----------------|
B|-12--12--12----------------12--------------12--12--/1818181818-|
G|-14b-14b-14br-13-----13-14-14br-13-----13----------/1616161618-|
D|----------------14-14-------------14-14--14--------------------|
A|---------------------------------------------------------------|
E|---------------------------------------------------------------|

e|------------------------------------------------------------|
B|-10-10-10-10--9---7---------10-10-10-10---9---12-12--16-16--|
G|-12b12^12^12^r11br9b-9-8~---12b12^12^12^r11br-14b14^-18b18^-|
D|------------------------------------------------------------|
A|------------------------------------------------------------|
E|------------------------------------------------------------|

e|---------------------------------------------------------------------------------|
B|-16---17-17-17-17---16--14-14~14~/16-17-17-17-16--18--18--18~-18~20b--20b--20b~-\|
G|-18br-19b19^19^19^r-18br16b16~16~/18-19b19^19^18b--------------------------------|
D|---------------------------------------------------------------------------------|
A|---------------------------------------------------------------------------------|
E|---------------------------------------------------------------------------------|

Rhythm during solo x1 - Guitar 1

e|-------------------------------------0-00000-----------------------------|
B|-------------------------------------0-00000-----------------------------|
G|-4-44444--6-66666--4-44444--2-22222--1-11111--6-66666--4-44444--2-222222-|
D|-2-22222--6-66666--4-44444--2-22222--2-22222--6-66666--4-44444--2-222222-|
A|----------4-44444--2-22222--0-00000--2-22222--4-44444--2-22222--0-000000-|
E|-------------------------------------0-00000-----------------------------|

e|--------------------|    e|---------------------------|
B|--------------------|    B|---------------------------|
G|-2-2-2-2---4-444444-|x3  G|-2-2-2-2---4-4444444444442-|
D|-2-2-2-2-2-4-444444-|    D|-2-2-2-2-2-4-4444444444442-|
A|-0-0-0-0-2-2-222222-|    A|-0-0-0-0-2-2-2222222222220-|
E|---------0----------|    E|---------0-----------------|


Verse [a] x2
e|-------------------------------------|
B|-------------------------------------|
G|-4---4-4--4---4-4--4---4-4--4---4-4--|
D|-2---2-2--2---2-2--4---4-4--2---2-2--|
A|----------4---4-4--2---2-2--0---0-0--|
E|-------------------------------------|

Pre Chorus x1 [part 2]
e|-----------------------------------------------|
B|-----------------------------------------------|
G|-4---4-4--4---4-4--4---4-4--2--2222222-2-222224|
D|-2---2-2--2---2-2--4---4-4--2--2222222-2-222224|
A|----------4---4-4--2---2-2--0--0000000-0-000002|
E|-----------------------------------------------|

Chorus x1

e|-0-00-00----------------------------|
B|-0-00-00----------------------------|
G|-1-11-11-4-444444-6-666666-2-222224-|x3
D|-2-22-22-4-444444-6-666666-2-222224-|
A|-2-22-22-2-222222-4-444444-0-000002-|
E|-0-00-00----------------------------|

e|-0-00-00------------------------------------------------------------|
B|-0-00-00------------------------------------------------------------|
G|-1-11-11-4-444444-6-666666-2-222222-2-222222-2-2222-2-2222-2-222224-|
D|-2-22-22-4-444444-6-666666-2-222222-2-222222-2-2222-2-2222-2-222224-|
A|-2-22-22-2-222222-4-444444-0-000000-0-000000-0-0000-0-0000-0-000002-|
E|-0-00-00------------------------------------------------------------|


Guitar 2 x1 (begins during the 2nd time of the chorus)

e|------------------------------------|
B|5/9-99979-7-77797-5-55555-----------|
G|5/9-99999-8-88888-6-66666--2-222222-|
D|---------------------------2-222222-|
A|---------------------------0-000000-|
E|------------------------------------|

e|--------------------------------------------------------------------|
B|5/9-99979-7-77797-5-55555--2-222222-2-222222-2-2222-2-2222-2-222224-|
G|5/9-99999-8-88888-6-66666--2-222222-2-222222-2-2222-2-2222-2-222224-|
D|---------------------------0-000000-0-000000-0-0000-0-0000-0-000002-|
A|--------------------------------------------------------------------|
E|--------------------------------------------------------------------|

e|---------------------------------------|
B|---------------------------------------|
G|---------------------------------------|
D|-9-------------------------------------|
A|-7-------------------------------------|
E|---------------------------------------|

Outro x1 - Guitar 1
e|---------------------------------------|
B|---------------------------------------|
G|-4---4-4--4---4-4--4---4-4--4---44-----|
D|-2---2-2--2---2-2--4---4-4--2---22---2-|
A|----------4---4-4--2---2-2--0---00---2-|
E|-----------------------------------4-0-|
Tap to rate this tab
 
# A B C D E F G H I J K L M N O P Q R S T U V W X Y Z