Song name
# A B C D E F G H I J K L M N O P Q R S T U V W X Y Z

Green Day - Having A Blast tab

Song:Having A Blast
Album:Dookie
Artist:Green Day
Genre:Punk Rock
Year:1994
Tuning:Half-Step Down (Eb,Ab,Db,Gb,Bb,Eb)

Intro x4
Eb-----------------------------|
Bb-----------------------------|
Gb-2-2-2222--------------------|
Db-2-2-2222--5-55555-----------|
Ab-0-0-0000--5-55555------2----|
Eb-----------3-33333--3-3---3--|

Verse 1 x2
Eb----------------------------------------|
Bb----------------------------------------|
Gb-2-2-----2------------------------------|
Db-2-2x23--2x8--4-----5-5-55--2-222-2-22--|
Ab-0-0-----0----4x16--5-5-55--2-222-2-22--|
Eb---.----------2-----3-3-33--0-000-0-00--|

Chorus 1 x2
Eb-------------------------------|
Bb-------------------------------|
Gb-77777777-------4--------------|
Db-77777777--7----4x8--55555555--|
Ab-55555555--7x8--2----55555555--|
Eb-----------5---------33333333--|

Post-Chorus 1 x4
Eb--------------------|
Bb--------------------|
Gb--------------------|
Db-7-7-777-5-5555555--|
Ab-7-7-777-5-5555555--|
Eb-5-5-555-3-3333333--|

Then:
*Verse 2 x2
*Chorus 2 x2
*Post-Chorus 2 x4

Bridge 1 x1
Eb--------------------------------------------------------|
Bb--------------------------------------------------------|
Gb-----------4--------------------------7777--------------|
Db-7--4-4----4-2-2222222--7--4-4444444--7777--7-7--2-2----|
Ab-7--4-4x7--2-2-2222222--7--4-4444444--5555--7-7--2-2x8--|
Eb-5--2-2------0-0000000--5--2-2222222--------5-5--0-0----|

Bridge 2 Pt.1
Eb-------------------------------------------------------------------|
Bb-------------------------------------------------------------------|
Gb----------7-777-777------------------------------------------------|
Db-4-44444--7-777-777--7-7-7777-7----4-44444--5-55555--7-X-77-7-7----|
Ab-4-44444--5-555-555--7-7-7777-7x6--4-44444--5-55555--7-X-77-7-7x6--|
Eb-2-22222-------------5-5-5555-5----2-22222--3-33333--5-X-55-5-5----|

Bridge Pt.2
Eb---------------------------------------------------|
Bb---------------------------------------------------|
Gb----------7-777-7----------------------------------|
Db-4-44444--7-777-7--7-7-7777-7----4-44444--5-55555--|
Ab-4-44444--5-555-5--7-7-7777-7x6--4-44444--5-55555--|
Eb-2-22222-----------5-5-5555-5----2-22222--3-33333--|

Outro x4
Eb---------------------|
Bb---------------------|
Gb---------------------|
Db-7-7-777--5-5555555--|
Ab-7-7-777--5-5555555--|
Eb-5-5-555--3-3333333--|

Song Order:
*Intro x4
*Verse 1 x2
*Chorus 1 x2
*Post-Chorus 1 x4
*Verse 2 x2
*Chorus 2 x2
*Post-Chorus 2 x4
*Bridge Pt.1
*Bridge Pt.2
*Outro x4

Here's A Link If You Wanna Play Along:
http://www.youtube.com/watch?v=QDXgAVZsoEM

Don't Forget To Rate And Comment If You Liked The Tab
And Comment Corrections. I Welcome Corrections.
Tap to rate this tab
# A B C D E F G H I J K L M N O P Q R S T U V W X Y Z