Song name
# A B C D E F G H I J K L M N O P Q R S T U V W X Y Z

Green Day - Why Do You Want Him tab

INTRO & CHORUS:
e------------------------------------------------------|
B------------------------------------------------------|
G--7-7-7-7-7-7--4-4-4-4-4-4----------------------------|
D--7-7-7-7-7-7--4-4-4-4-4-4--5-5-5-5-5-5--7-7-7-7-7-7--|
A--5-5-5-5-5-5--2-2-2-2-2-2--5-5-5-5-5-5--7-7-7-7-7-7--|
E----------------------------3-3-3-3-3-3--5-5-5-5-5-5--|


VERSES:
e------------------------------------------------------|
B------------------------------------------------------|
G--7-7-7-7-7-7-----------------------------------------|
D--7-7-7-7-7-7--7-7-7-7-7-7--4-4-4-4-4-4--5-5-5-5-5-5--|
A--5-5-5-5-5-5--7-7-7-7-7-7--4-4-4-4-4-4--5-5-5-5-5-5--|
E---------------5-5-5-5-5-5--2-2-2-2-2-2--3-3-3-3-3-3--|


BRIDGE:
e---------------|
B---------------|
G------4--------|
D--5-7-4-5-7----|
A--5-7-2-5-7----|
E--3-5---3-5----|

and i'm too lazy for the solo, sorry.
Tap to rate this tab
# A B C D E F G H I J K L M N O P Q R S T U V W X Y Z