Song name
# A B C D E F G H I J K L M N O P Q R S T U V W X Y Z

Green Day - Brutal Love tab

-------------------------------------------------------------------------------
                                                      BRUTAL LOVE - Green Day
-------------------------------------------------------------------------------
Tabbed by: Willmiester98
E-mail: Rockerboy88uk@yahoo.co.uk

Tuning: EADGBe (Standard)

INTRO:
e|--------------------------|--------------------------|
B|--------------------------|--------------------------|
G|--------5-----------5-----|-------5-----------5------|
D|------6---6-------6---6---|-----6---6-------6---6----|
A|----6-------6---6-------6-|---6-------6---6-------6--|
E|--4-----------4-----------|-4-----------4------------|

VERSE:
e|--------------------------|--------------------------|
B|--------------------------|-------8-----------8------|
G|--------5-----------5-----|-----8---8-------8---8----|
D|------6---6-------6---6---|---8-------8---8-------8--|
A|----6-------6---6-------6-|-6-----------6------------|
E|--4-----------4-----------|--------------------------|

e|--------------------------|--------------------------|
B|--------------------------|-------6-----------6------|
G|--------5-----------5-----|-----6---6-------6---6----|
D|------6---6-------6---6---|---6-------6---6-------6--|
A|----6-------6---6-------6-|-4-----------4------------|
E|--4-----------4-----------|--------------------------|

e|--------------------------|--------------------------|
B|--------------------------|-------8-----------8------|
G|--------5-----------5-----|-----8---8-------8---8----|
D|------6---6-------6---6---|---8-------8---8-------8--|
A|----6-------6---6-------6-|-6-----------6------------|
E|--4-----------4-----------|--------------------------|

INTRO
VERSE
INTRO
VERSE
INTRO

VERSE (2) :
e|--------------------------|--------------------------|
B|--------------------------|-------8-----------8------|
G|--------5-----------5-----|-----8---8-------8---8----|
D|------6---6-------6---6---|---8-------8---8-------8--|
A|----6-------6---6-------6-|-6-----------6------------|
E|--4-----------4-----------|--------------------------|

e|--------------------------|--------------------------|
B|--------------------------|-------6-----------6------|
G|--------5-----------5-----|-----6---6-------6---6----|
D|------6---6-------6---6---|---6-------6---6-------6--|
A|----6-------6---6-------6-|-4-----------4------------|
E|--4-----------4-----------|--------------------------|

e|--------------------------|--------------------------|
B|--------------------------|-------8-----------8------|
G|--------5-----------5-----|-----8---8-------8---8----|
D|------6---6-------6---6---|---8-------8---8-------8--|
A|----6-------6---6-------6-|-6-----------6------------|
E|--4-----------4-----------|--------------------------|

e|--------------------------|--------------------------|
B|--------------------------|--------------------------|
G|--------5-----------5-----|-------5-----------5------|
D|------6---6-------6---6---|-----4---4-------4---4----|
A|----6-------6---6-------6-|---6-------6---6-------6--|
E|--4-----------4-----------|-4-----------4------------|

BRIDGE:
e|--------------------------|--------------------------|
B|--------6-----------6-----|--------------------------|
G|------6---6-------6---6---|-------5-----------5------|
D|----6-------6---6-------6-|-----6---6-------6---6----|
A|--4-----------4-----------|---6-------6---6-------6--|
E|--------------------------|-4-----------4------------|

e|--------------------------|--------------------------|
B|--------8-----------8-----|--------------------------|
G|------8---8-------8---8---|-------5-----------5------|
D|----8-------8---8-------8-|-----6---6-------6---6----|
A|--6-----------6-----------|---6-------6---6-------6--|
E|--------------------------|-4-----------4------------|

e|--------------------------|--------------------------|
B|--------6-----------6-----|--------------------1-----|
G|------6---6-------6---6---|-------5----------1---1---|
D|----6-------6---6-------6-|-----6----------3-------3-|
A|--4-----------4-----------|---6----------------------|
E|--------------------------|-4-------4-3-1------------|

e|--------------------------|--------------------------|
B|--------6-----------6-----|--------------------------|
G|------6---6-------6---6---|--------------------------|
D|----6-------6---6-------6-|--------------------------|
A|--4-----------4-----------|-6------------------------|
E|--------------------------|--------------------------|

GUITAR SOLO:
e|--------------------------|--------------------------|
B|--------------------------|--------------------------|
G|-1-1/10\8-8-8/10\8/10\8\1-|-1/5\0--0-0-1/3--3\1/3----|
D|--------------------------|--------------------------|        x2
A|--------------------------|--------------------------|
E|--------------------------|--------------------------|

BRIDGE (2):
e|--------------------------|--------------------------|
B|--6-6-6-6-----6-6-6-6-----|--------------------------|
G|--6-6-6-6-----6-6-6-6-----|-5-5-5-5----5-5-5-5-5-----|
D|--6-6-6-6-----6-6-6-6-----|-6-6-6-6----6-6-6-6-6-0-0-|
A|--4-4-4-4-----4-4-4-4-----|-6-6-6-6----6-6-6-6-6-0-0-|
E|--------------------------|-4-4-4-4----4-4-4-4-4-0-0-|

e|--------------------------|--------------------------|
B|-8-8-8-8-8-8-8-8-8-8-8----|--------------------------|
G|-8-8-8-8-8-8-8-8-8-8-8----|-5-5-5-5-5-5-5-5-5-5-5----|
D|-8-8-8-8-8-8-8-8-8-8-8----|-6-6-6-6-6-6-6-6-6-6-6----|
A|-6-6-6-6-6-6-6-6-6-6-6-0-0|-6-6-6-6-6-6-6-6-6-6-6-0-0|
E|-----------------------0-0|-4-4-4-4-4-4-4-4-4-4-4-0-0|

e|--------------------------|--------------------------|
B|--6-6-6-6-----6-6-6-6-----|--------------------------|
G|--6-6-6-6-----6-6-6-6-----|-5-5-5-5------------------|
D|--6-6-6-6-----6-6-6-6-----|-6-6-6-6-----3-3-3-3-3-3/-|
A|--4-4-4-4-----4-4-4-4-----|-6-6-6-6-6-6\3-3-3-3-3-3/-|
E|--------------------------|-4-4-4-4-4-3\1-1-1-1-1-1/-|

e|--------------------------|--------------------------|
B|--6-6-6-6-6-6-6-6-6-6-6-6/|8-8-8-8-8-8/9-9-9-9-9-----|
G|--6-6-6-6-6-6-6-6-6-6-6-6/|8-8-8-8-8-8/9-9-9-9-9-----|
D|--6-6-6-6-6-6-6-6-6-6-6-6/|8-8-8-8-8-8/9-9-9-9-9-----|
A|--4-4-4-4-4-4-4-4-4-4-4-4/|6-6-6-6-6-6/7-7-7-7-7-0-0-|
E|--------------------------|----------------------0-0-|

CHORUS:   
e|--------------------------|--------------------------------|
B|--------------------------|-7-7-7-7-7-7/10-10-10-10-10-10\-|
G|-6-6-6-6-6-6--6-6-6-6-6-6-|-7-7-7-7-7-7/10-10-10-10-10-10\-|
D|-7-7-7-7-7-7--6-6-6-6-6-6-|-7-7-7-7-7-7/10-10-10-10-10-10\-|
A|-7-7-7-7-7-7--4-4-4-4-4-4-|-5-5-5-5-5-5/8--8--8--8--8--8-\-|
E|-5-5-5-5-5-5--------------|--------------------------------|
                                                                    x3
e|--------------------------|--------------------------------|
B|--------------------------|-7-7-7-7-7-7/9-9-9\-------------|
G|-6-6-6-6-6-6--5-5-5-5-5-5-|-7-7-7-7-7-7/9-9-9\7-7-7--------|
D|-7-7-7-7-7-7--6-6-6-6-6-6-|-7-7-7-7-7-7/9-9-9\8-8-8--------|
A|-7-7-7-7-7-7--6-6-6-6-6-6-|-5-5-5-5-5-5/7-7-7\8-8-8--------|
E|-5-5-5-5-5-5--4-4-4-4-4-4-|-------------------6-6-6--------|

CHORUS (2):
e|--------------------------|--------------------------------|
B|--------------------------|-7-7-7-7-7-7/10-10-10-10-10-10\-|
G|-6-6-6-6-6-6--6-6-6-6-6-6-|-7-7-7-7-7-7/10-10-10-10-10-10\-|
D|-7-7-7-7-7-7--4-4-4-4-4-4-|-7-7-7-7-7-7/10-10-10-10-10-10\-|
A|-7-7-7-7-7-7--4-4-4-4-4-4-|-5-5-5-5-5-5/8--8--8--8--8--8-\-|
E|-5-5-5-5-5-5--------------|--------------------------------|

e|--------------------------|--------------------------------|
B|--------------------------|-7-7-7-7-7-7/9-9-9\-------------|
G|-6-6-6-6-6-6--5-5-5-5-5-5-|-7-7-7-7-7-7/9-9-9\7-7-7----6---|
D|-7-7-7-7-7-7--6-6-6-6-6-6-|-7-7-7-7-7-7/9-9-9\8-8-8----7---|
A|-7-7-7-7-7-7--6-6-6-6-6-6-|-5-5-5-5-5-5/7-7-7\8-8-8----7---|
E|-5-5-5-5-5-5--4-4-4-4-4-4-|-------------------6-6-6----5---|

************************************
| /   slide up
| \   slide down
************************************

Congratulations, you have now completed Brutal Love by Green Day. Track 1 on the album iTre!
Tap to rate this tab
# A B C D E F G H I J K L M N O P Q R S T U V W X Y Z