Song name
# A B C D E F G H I J K L M N O P Q R S T U V W X Y Z

Green Day - Kill The Dj tab

GREEN DAY
Kill The DJ
Standard

slight tremelo bends thoughout songs

Intro
e|------------------------------------------|
B|------------------------------------------|
G|------------------------------------------|
D|----------------------7-------------------|
A|-x--x--x--x--x--x--x--x-------------------|
E|-5--5--5--5--5--5--5-55--3(slight bend)---|

Intro 2/Verse
----55------------7-------------------------|
----55------------7-------------------------|
----55---5-5---x7-7---x---------------------|
--7-----x7-7---x7-----x---------------------| x6
--7-----x7-7---x5-----x---------------------|
--5-----x5-5-----------3-3-3-0--------------|
|| Prechorus
------------------------------------------------------------|
------------------------------------------------------------|
-------x-----x7-5--x77\5--7-5---------x-----x7-5--x7~-------|
-------x-----xx-x--xxx-x--x-x---------x-----xx-x--xx~-------|
--2-2--x2----x5-3--x55\3--5-3----2-2--x2----x5-3--x5~-------|
--0-0---0h3----------------------0-0---0h3------------------|



Chorus - Guitar 1
--5--55--5--55--7--77--3--33--5--55--5--55--7--xx-----------|
--5--55--5--55--7--77--3--33--5--55--5--55--7--xx----8------|
--5--55--5--55--7--77--4--44--5--55--5--55--7--xx-7b~~rp5---|
------------------------------------------------------------| x1.5
------------------------------------------------------------|
------------------------------------------------------------|
Chorus - Guitar 2
------------------------------------------------------------|
------------------------------------------------------------|
---------------x7-7------------------------x7-7-------------|
--7-7--x7-7----x7-7---x5-5----7-7--x7-7----x7-7-------------| x1.5
--7-7--x7-7----x5-5---x5-5----7-7--x7-7----x5-5-------------|
--5-5--x5-5-----------x3-3----5-5--x5-5-----------5p3p0-5p3-|


  Play Intro


Chorus 2 - Guitar 1 (anticipation)
--5~---8~---3~---5~---5~---8~---0-0-0-0-0-------------------|
--6~---8~---3~---5~---6~---8~---0-0-0-0-0-------------------|
--5~---9~---4~---5~---5~---9~---1-1-1-1-1-------------------|
--------------------------------2-2-2-2-2-------------------|
------------------------------------------------------------|
------------------------------------------------------------|
Chorus 2 - Guitar 2
------------------------------------------------------------|
------------------------------------------------------------|
-------5-------------------5--------------------------------|
--3----5----5----7----3----5--------------------------------|
--3----3----5----7----3----3-------------------x------------|
--1---------3----5----1---------0-0-5-0-0------x3b----------|


Intro 2/Verse (different) -Guitar 1
------55-------55--x7-7-xxxx-----------5555------55--7-7xxxx------------|
------55-------55--x7-7-xxxx-----------5555------55--7-7xxxx----8-------|
------55-------55--x7-7-xxxx-77-5-7-5--5555------55--7-7xxxx-7b~~rp5----|
------------------------------------------------------------------------|
------------------------------------------------------------------------|
------------------------------------------------------------------------|
Intro 2/Verse - Guitar 2
------------------------------------------------------------------------|
------------------------------------------------------------------------|
------------------x7-7------------------------------x7-7----------------|
--7-7---x7-7------x7-7---------------7-7----x7-7----x7-7----------------|
--7-7---x7-7------x5-5---------------7-7----x7-7----x5-5----------------|
--5-5---x5-5----------------3-3-3-0--5-5----x5-5-------------3-3-3-0----|

    
   *NOW PLAY THAT ALL AGAIN, BESIDES THE INTRO, UP UNTIL THE VERSE*


Bridge                        x3  Guitar 2 comes in with this        x1
----------|--------------------|----------------------------------------|
----------|--------------------|----------------------------------------|
----------|--------------------|-----------------9999-------------------|
----------|--------------------|-7777999910101010-----------------------|
--x-------|-------------7777---|----------------------------------------|
--5~~~~~~-|-555577778888-------|----------------------------------------|


Solo - Guitar 1 (Guitar 2 plays chorus pt 1 & 2)
w = tremelo bar
v = vibrato
-5w~~~~~-55-x7------------------17171717------55---7-7~-----------------|
-5w~~~~~-55-x7------------------17171717----xx55--x7-7~----------8------|
-5w~~~~~-55-x7--x-x-77-5-7-5----17171717----xx55--x7-7~---x-x-7b~~rp5---|
-----------------------------------------------------7~-----------------|
------------------------------------------------------------------------|
------------------------------------------------------------------------|
||
-5555----55-x7------------------17171717------55---7-7~-----------------|
-5555----55-x7------------------17171717----xx55--x7-7~-----------------|
-5555----55-x7--x-x-77-5-7-5----17171717----xx55--x7-7~---x-x-77-5-7-5--|
-----------------------------------------------------7~-----------------|
------------------------------------------------------------------------|
------------------------------------------------------------------------|
||
-5wv~~~~--8wv~~~~--3wv~~~~--5wv~~~~--5wv~~~~--8wv~~~~-------------------|
-6wv~~~~--8wv~~~~--3wv~~~~--5wv~~~~--6wv~~~~--8wv~~~~-------------------|
-5wv~~~~--9wv~~~~--4wv~~~~--5wv~~~~--5wv~~~~--9wv~~~~-------------------|
------------------------------------------------------------------------|
------------------------------------------------------------------------|
-------------------------------------------------------0-0-5-0-0--x5-3b-|




Interlude thing - Guitar 1
-----------------------------------------------------------|
-----------------------------------------------------------|
------------------------------------------shoot------------|
------------------------------------------that-------------|
--xw~~~~~~---------------7777--(x6)----x--fucker-----------|
--5w~~~~~~~--555577778888--------------5--down-----x5-3b~--|
Interlude thing - Guitar 2
--5--------------------------------------------------------|
--5--PLAY THIS CHORD---------------------------------------|
--5--------------AS A STACCATO-----------------------------|
--7----------------------------37 TIMES :)-----------------|
--7--------------------------------------------------------|
--5--------------------------------------------------------|


      PLAY CHORUS PART 1
    
      PLAY INTRO

End on
-5w~~~~-------|
-5w~~~~-------|
-5w~~~~-------|
-7w~~~~-------|
-7w~~~~-------|
-5w~~~~-------|


Done. Please rate and comment :P
Tap to rate this tab
 
# A B C D E F G H I J K L M N O P Q R S T U V W X Y Z