Song name
# A B C D E F G H I J K L M N O P Q R S T U V W X Y Z

Green Day - No One Knows tab

Hello, i didn't found TAB anywhere, chords everywhere, only bass intro is tabed. I 
worked about that and I know how to play that song. The tab is correct, when I 
play sounds perfect. Enjoy!

Verse (Palm Muted*)
                *      *      *
|-------------|----------------------|
|-------------|----------------------|
|-------------|--------6(16x)--------|
|-6~----------|-4(16x)-6(16x)-6(16x)-|
|-6~----------|-4(16x)-4(16x)-6(16x)-|
|-4~----------|-2(16x)--------4(16x)-|

Chorus (It's played a little bit like verse, but look)

         (2x)             (3x)
|--------------------|------------|-------------|
|--------------------|------------|-------------|
|-------6(8x)--------|-------6(8x)|-------------|
|-4(8x)-6(8x)-6(16x)-|-4(8x)-6(8x)|-6~----------|
|-4(8x)-4(8x)-6(16x)-|-4(8x)-4(8x)|-6~----------|
|-2(8x)-------4(16x)-|-2(8x)------|-4~----------|

Bridge

Bridge is the same as verse, after that play chorus again.

End with:
|---------------|
|2~-------------|
|3~-------------|
|2~-------------|
|0~-------------|
|---------------|


~ let ring
* PM
Tap to rate this tab
# A B C D E F G H I J K L M N O P Q R S T U V W X Y Z