Song name
# A B C D E F G H I J K L M N O P Q R S T U V W X Y Z

Green Day - Basket Case Acoustic tab

STANDARD TUNING, CAPO ON 1ST FRET!


E|-----------------------|
B|--3--2--3-----3--3--2--|
G|--2--2--4--3--0--2--2--|   X2  (Do you have the time...)
D|--0--2--4--4--0--0--2--|
A|-----0--2--4--------0--|
E|-----------2--3--------|


E|-----------|
B|--3--2--3--|
G|--0--2--2--|   X2  (Sometimes I give myself the creeps...)
D|--0--2--0--|
A|-----0-----|
E|--3--------|


E|--------|
B|--3--2--|
G|--0--2--|      (It all keeps adding up)
D|--0--2--|
A|-----0--|
E|--3-----|


E|-----0----|
B|--3--1--3-|
G|--2--0--4-|  (I think I'm cracking up)
D|--0--2--4-|
A|-----3--2-|
E|----------|


E|-------|
B|--3--2-|
G|--0--2-|  (Am I just paranoid)
D|--0--2-|
A|-----0-|
E|--3----|


E|--------------|
B|--3-----------|
G|--2--2--4--2--|   X2  (bridge)
D|--0--2--4--2--|
A|-----0--2--0--|
E|--------------|

  Repeat verse, chorus & bridge

E|-------|
B|--3--2-|
G|--0--2-|  (Grasping to control)
D|--0--2-|
A|-----0-|
E|--3----|

  Repeat verse & chorus

E|-----------------|
B|--3--3--3--3--2--|
G|--2--4--0--2--2--|  X4   Outro
D|--0--4--0--0--2--|
A|-----2--------0--|
E|--------3--------|


E|-----------|
B|--3--3--2--|
G|--0--2--2--|  End with this
D|--0--0--2--|
A|--------0--|
E|--3--------|
Tap to rate this tab
 
# A B C D E F G H I J K L M N O P Q R S T U V W X Y Z