Song name
# A B C D E F G H I J K L M N O P Q R S T U V W X Y Z

Green Day - Fuck Time tab

-------------------------------------------------------------------------------
                             Fuck Time - Green Day
-------------------------------------------------------------------------------
Tabbed by: Tyler_2112


Tuning:EADGBe

Intro and Verse 1

e|-------------------|
B|-------------------|
G|---7-7-7--9--------|
D|---7-5-7--9-(*6)---|
A|---5-5-5--7--------|
E|-------------------|

Chorus

e|----------------------------------------------------------------------|
B|----------------------------------------------------------------------|
G|----------------------------------------------------------------------|
D|-----------2-2-4-2-------------------------------------2-2-4-2--------|
A|---0-0-3-4---------(*2)----------2-2-4-2-------0-0-3-4---------(*2)---|
E|-------------------------0-0-3-4---------(*2)-------------------------|

Post-Chorus

e|----------555555555----------------------------------------------------|
B|-----------------------------------------2--2222222--------------------|
G|---4444444444444444----------------------2--2222222-5555555555555555---|
D|---4444444444444444--2--2222222-55555555-2--2222222-5555555555555555---|
A|---2222222222222222--2--2222222-55555555-0--0000000-3333333333333333---|
E|---------------------0--0000000-33333333-------------------------------|

Verse 2

e|-----------------|------------|-------------------|
B|-----------------|------------|-------------------|
G|---7-7-7--9------|---3b~~p0\--|---7-7-7--9--------|
D|---7-5-7--9-(*2)-|------------|---7-5-7--9-(*4)---|
A|---5-5-5--7------|------------|---5-5-5--7--------|
E|-----------------|------------|-------------------|


(Chorus)

(Post-Chorus)


Solo: Part 1 (Lead Guitar)

e|---\\\-------------\---12-------------12----12--------15------------------|
B|---\\\-------------\---12-------------12--12--12-15~----15br-15b-15b-15br-|
G|---\\\---3~~3~~3~~-\-------14-12--12--14b---------------------------------|
D|---\\\-------------\------------14----------------------------------------|
A|---\\\-------------\------------------------------------------------------|
E|---\\\-------------\------------------------------------------------------|

e|--------------------------------------------------------------------------|
B|-12h15p12--12~------------------------------------------------------------|
G|---------14----(Entire Fretboard Slide)-----------------------------------|
D|---------------x\\x-x//x\\x-x//x\\x-x\\-----------------------------------|
A|---------------x\\x-x//x\\x-x//x\\x-x\\-----------------------------------|
E|---------------x\\x-x//x\\x-x//x\\x-x\\-----------------------------------|

Solo: Part 2 (Lead Guitar)

e|---5-5------5--5-5------5--12-12---------121212-----------------|
B|---5-5------5--5-5------5--12-12---------121212-----------------|
G|-------7-5h6-------7-5h6---------14-12h13-------15b15b15b15b~---|
D|----------------------------------------------------------------|
A|----------------------------------------------------------------|
E|----------------------------------------------------------------|

e|-12-15br-12--12-----------------------------------------------------------|
B|-----------15---15-15br-12--12-12-12--12-12-12-12-12-12-12-12--/14--14-14-|
G|--------------------------14------14b-14b14b14b14b14b14b14b14br/16b-16b16b|
D|-------------------------------------(                  Hold Bends        |
A|--------------------------------------------------------------------------|
E|--------------------------------------------------------------------------|

e|-------------------|
B|14-14-14-14-14-----|
G|16b16b16b16b16br---|
D|            )------|
A|-------------------|
E|-------------------|

*Rhythm during solo is the verse in part 1 and the chorus in part 2*

(Post-Chorus x2) *Last note 2nd time around in post-chorus is played 24 times instead of 8*

Outro

e|-----------------|   Lead   |  Rhythm   |--------------|
B|-----------------|----------|---14------|--------------|
G|---7-7-7--9------|---3b~----|-----15b---|---7-7-7--9---|
D|---7-5-7--9-(*4)-|----------|-----------|---7-5-7--9---|
A|---5-5-5--7------|----------|-----------|---5-5-5--7---|
E|-----------------|Played  simultaneously|--------------|

I'm pretty certain this is as accurate as you can get without getting tabs from the 
actual band members.
If you find something wrong, leave a comment and I'll consider editing if need be.




************************************

| /   slide up
| \   slide down
| h   hammer-on
| p   pull-off
| ~   vibrato
| x   Mute note
| b   Bend
| br  Bend release


************************************
Tap to rate this tab
 
# A B C D E F G H I J K L M N O P Q R S T U V W X Y Z