Song name
# A B C D E F G H I J K L M N O P Q R S T U V W X Y Z

Green Day - Drama Queen tab

-------------------------------------------------------------------------------
                             Drama Queen - Green Day
This is my very first tab so please rate and comment what you think.
-------------------------------------------------------------------------------
Tabbed by: danbell12
E-mail: daniel12@live.ca

Tuning:Standard
This part can be played on piano or guitar
e|---12-15-----13-12-10~--12-15-----13-12-10~--------------------------------|
B|---------13~------------------13~------------------------------------------|
G|---------------------------------------------------------------------------|
D|---------------------------------------------------------------------------|
A|---------------------------------------------------------------------------|
E|---------------------------------------------------------------------------|

e|---------------------------------------------------10br-8------------------|
B|------5-8-8b-8b-8br-5--------------------5-8-8b-8b--------10-7~------------|
G|---7b-----------------7--7br-5--------7b-----------------------------------|
D|-------------------------------7~-7~---------------------------------------|
A|---------------------------------------------------------------------------|
E|---------------------------------------------------------------------------|

This part can be played on piano or guitar
e|---12-15-----13-12-10~--12-15-----13-12-10~--------------------------------|
B|---------13~------------------13~------------------------------------------|
G|---------------------------------------------------------------------------|
D|---------------------------------------------------------------------------|
A|---------------------------------------------------------------------------|
E|---------------------------------------------------------------------------|

************************************

| ~   vibrato
| b   Bend
| pb  Pre-bend
| br  Bend release

************************************
Tap to rate this tab
 
# A B C D E F G H I J K L M N O P Q R S T U V W X Y Z