Song name
# A B C D E F G H I J K L M N O P Q R S T U V W X Y Z

Green Day - State Of Shock tab

-------------------------------------------------------------------------------
                               State Of Shock 
                              From Demolicious
-------------------------------------------------------------------------------
Tabbed by: @zzfrenchy123zzgamer

Info: Standard Tuning 

Verse 1

e|--------------------|
B|--------------------|
G|-----------------7-7|
D|-7-7-7-7-7-7-7-7-7-7|  x3
A|-7-7-7-7-7-7-7-7-5-5|
E|-5-5-5-5-5-5-5-5----|

Chorus

e|-------------------------------------------------|
B|-------------------------------------------------|
G|-3-3-3-3-7-7-------------------------------------|
D|-3-3-3-3-7-7-7-7-7-7-7-7-7-7--7-7-5-5-7-7-5-5-7-7| 
A|-1-1-1-1-5-5-7-7-7-7-7-7-7-7--7-7-5-5-7-7-5-5-7-7|
E|-------------5-5-5-5-5-5-5-5--5-5-3-3-5-5-3-3-5-5|

Repeat The Verse And Chorus x2

Bridge

e|-----------------------------------------------------|
B|-----------------------------------------------------|
G|-------------------------9-9-----6-6-6>>-9-9-9-------|
D|-11-11-11-11-11-11-11-11-9-9-9-9-6-6-6>>-9-9-9-9-9-9-|  >> = Slide Up
A|-9--9--11-11-11-11-11-11-7-7-9-9-4-4-4>>-7-7-7-9-9-9-|
E|-9--9--9--9--9--9--9--9------7-7---------------7-7-7-|

Repeat The Bridge x1

e|-------------|
B|-------------|
G|-9-9-9-------|
D|-9-9-9-9-9-9-| x2 
A|-7-7-7-9-9-9-|
E|-------7-7-7-|

e|---|
B|---|
G|---|
D|-3-| Hold For 5 seconds
A|-3-|
E|-1-|

Outro

e|-----------------------------|
B|-----------------------------|
G|-9-9-9-----------------9-9---|
D|-9-9-9-9-9-9-9-9-9-9-9-9-9--9| Hold And End The Last -9-
A|-7-7-7-9-9-9-9-9-9-9-9-7-7--9|                       -9-
E|-------7-7-7-7-7-7-7-7------7|                       -7-

Intro
Chorus
Intro
Chorus
Bridge x2
End
Tap to rate this tab
# A B C D E F G H I J K L M N O P Q R S T U V W X Y Z