Song name
# A B C D E F G H I J K L M N O P Q R S T U V W X Y Z

Green Day - Lady Cobra tab

Green Day - Lady Cobra

So basically, I did this tab ages ago, but forgot to put it on UG.
I'm just gonna put the solo because there are other accurate tabs for this song.

Solo:

Gtr.1:

Distorted.

|-------------10b~--------------------------10b~--14b~--17b~-|
|-------11b~--------11b~--12-0-12--12-0-12-------------------|
|-10b~-------------------------------------------------------|
|------------------------------------------------------------|
|------------------------------------------------------------|
|------------------------------------------------------------|

Gtr.2:

With lots of feedback.

*-tremolo

|-14b*-0------------------------------------------------|
|-12b*-0---------------------------------12-15-15b~-----|
|---------11b-11b-11b~--16/4/16/---11b~-------------16/-|
|-----------------------x--x-x----------------------x---|
|-----------------------14/2/14/--------------------14/-|
|-------------------------------------------------------|

Back to chorus.

And that's it, hope you it helps you and I would appreciate if you rate.
Tap to rate this tab
# A B C D E F G H I J K L M N O P Q R S T U V W X Y Z